Song name
# A B C D E F G H I J K L M N O P Q R S T U V W X Y Z

The Years Gone By - You Might As Well Be In Space tab

Help us improve GuitareTab! Take a short survey!
Band:The Years Gone By
Song:You Might As Well Be In Space
Guitarists:
Rhythm-Nick Madore
Lead-Mike Polimine
Album:Forever Comes Too Soon
Tuning:Standard (E,A,D,G,B,e)
Key:
~:let ring
/-\:slide
x:scratch
X\:pickslide
*:natural harmonics

Intro:Rock Organ
e|---------| 
B|-s7~-7~--|  
G|-w7~-7~--|
D|-e7~-7~--|  
A|-l5~-4~--|  
E|-l-------| 

Verse:both
e|---------------------------------------------|
B|---------------------------------------------|
G|-77777777-99999999-1111111111111111-99999999-|
D|-77777777-99999999-1111111111111111-99999999-| x3
A|-55555555-77777777-9-9-9-9-9-9-9-9--77777777-|
E|---------------------------------------------|

  Lead- n.h.
e|-------------|  |-----------|
B|-7*-----7*---|  |-7*-----7*-|
G|---7*----7*--|  |---7*------|
D|-----7*---7*-|x7|-----7*----|
A|-------------|  |-----------|
E|-------------|  |-----------|

  Rythm
e|---------------------------------------------|
B|---------------------------------------------|
G|-77777777-99999999-1111111111111111-99999999-|
D|-77777777-99999999-1111111111111111-99999999-|
A|-55555555-77777777-9-9-9-9-9-9-9-9--77777777-|
E|---------------------------------------------|

e|------------------------------------------------|
B|------------------------------------------------|
G|-77777777-99999999-1111111111111111-9/11-x-911\-|
D|-77777777-99999999-1111111111111111-9/11-x-911\-|
A|-55555555-77777777-9-9-9-9-9-9-9-9--7/9--x-79\--|
E|------------------------------------------------|

Chorus:(x2)
e|-------------------------------------|
B|-------------------------------------|
G|-77777777----------------------------|
D|-77777777-77777777-99999999-77779999-| x1
A|-55555555-77777777-99999999-77779999-|
E|----------55555555-77777777-55557777-|
  
  those r 11's
e|------------------|  
B|------------------|
G|-77-799-911-199-9-|
D|-xx-xxx-xxx-xxx-x-| x2
A|-55-577-799-977-7-|
E|------------------|

Bridge: pickslides 
e|-----------------------R--------|
B|-----------------------h--------|
G|-7~-----------L--------y--------|
D|-7~-FRIDAY!!!-e--------t--------|
A|-5~-----------a-X\\\\\-h-X\\\\\-|
E|--------------d-X\\\\\-m-X\\\\\-|

Verse:both
e|-------------------------------------|
B|-------------------------------------|
G|-------------------------------------|
D|-77777777-99999999-11111111-99999999-|
A|-55555555-77777777-99999999-77777777-|
E|-------------------------------------|
pm ........ ........ ........ ........
                you're on the other coast!
e|-------------------------------------|
B|-------------------------------------|
G|-------------------11111111-99999999-|
D|-77777777-99999999-11111111-99999999-|
A|-55555555-77777777-99999999-77777777-|
E|-------------------------------------|
pm ........ ........ 

   4 hours!
e|---------------------------|
B|---------------------------|
G|-7-7-7-7-11119999-77779999-|
D|-7-7-7-7-11119999-77779999-|
A|-5-5-5-5-99997777-55557777-|
E|---------------------------|

  Lead- n.h.
e|-------------|  |-----------|
B|-7*-----7*---|  |-7*-----7*-|
G|---7*----7*--|  |---7*------|
D|-----7*---7*-|x7|-----7*----|
A|-------------|  |-----------|
E|-------------|  |-----------|

  Rythm
e|---------------------------------------------|
B|---------------------------------------------|
G|-77777777-99999999-1111111111111111-99999999-|
D|-77777777-99999999-1111111111111111-99999999-|
A|-55555555-77777777-9-9-9-9-9-9-9-9--77777777-|
E|---------------------------------------------|

e|------------------------------------------------|
B|------------------------------------------------|
G|-77777777-99999999-1111111111111111-9/11-x-911\-|
D|-77777777-99999999-1111111111111111-9/11-x-911\-|
A|-55555555-77777777-9-9-9-9-9-9-9-9--7/9--x-79\--|
E|------------------------------------------------|

Chorus:(x2)
e|-------------------------------------|
B|-------------------------------------|
G|-77777777----------------------------|
D|-77777777-77777777-99999999-77779999-| x1
A|-55555555-77777777-99999999-77779999-|
E|----------55555555-77777777-55557777-|
  
  those r 11's
e|------------------|  
B|------------------|
G|-77-799-911-199-9-|
D|-xx-xxx-xxx-xxx-x-| x2
A|-55-577-799-977-7-|
E|------------------|

Bridge: Can't move my feet!
e|---------|
B|---------|
G|-7~--9~--|
D|-7~--9~--|
A|-5~--7~--|
E|---------|

Breakdown:gotta get it rite


Chorus:(x2)
e|-------------------------------------|
B|-------------------------------------|
G|-77777777----------------------------|
D|-77777777-77777777-99999999-77779999-| x1
A|-55555555-77777777-99999999-77779999-|
E|----------55555555-77777777-55557777-|
  
  those r 11's
e|------------------|  
B|------------------|
G|-77-799-911-199-9-|
D|-xx-xxx-xxx-xxx-x-| x2
A|-55-577-799-977-7-|
E|------------------|

Outro:
e|---------|
B|---------|
G|-7~7~7~~-|
D|-7~7~7~~-|
A|-5~5~5~~-|
E|---------|



Related for You Might As Well Be In Space tab