Song name
# A B C D E F G H I J K L M N O P Q R S T U V W X Y Z

The Years Gone By - The Translation tab

Band:The Years Gone By
Song:The Translation
Guitarists:
Rhythm-Nick Madore
Lead-Mike Polimine
Album:On The Verge
Tuning:Standard (E,A,D,G,B,e)
Key:

Intro: both guitars
e|---3~--3~--3~-|
B|--5~--5~------|
G|-5~--5~--5~---|
D|--------------| x4
A|--------------|
E|--------------|

e|---------------------------------------------|
B|---------------------------------------------|
G|-55555555-1212121212121212-7-99--7-99--7-997-|
D|-xxxxxxxx--x-x-x-x-x-x-x-x-x-xx--x-xx--x-xxx-| x2
A|-33333333-1010101010101010-5-77--5-77--5-775-|
E|---------------------------------------------|

   Rhythm Guitar
e|-----------------------------------|
B|-----------------------------------|
G|-5555555555555555-7777777777777777-|
D|-xxxxxxxxxxxxxxxx-xxxxxxxxxxxxxxxx-|
A|-3333333333333333-5555555555555555-|
E|-----------------------------------|
   Lead Guitar
e|-----------------------------------------|
B|-----------------------------------------|
G|-7-55-55555555-77777777-1212121212121212-|
D|-x-xx-xxxxxxxx-xxxxxxxx--x-x-x-x-x-x-x-x-|
A|-5-33-33333333-55555555-1010101010101010-|
E|-----------------------------------------|

Verse:
   Rhythm
e|---------------------------------|
B|---------------------------------|
G|-5-5-55----------5-5-55----------|
D|-5-5-55--5-5-55--5-5-55--5-5-55~-|
A|-3-3-33--5-5-55--3-3-33--5-5-55~-|
E|---------3-3-33----------3-3-33~-|

   Lead
e|------3~-|
B|--5~5~---|
G|-5~5~5~--|
D|---------| x8
A|---------|
E|---------|

Bridge:
   Rhythm
e|----|
B|----|
G|----|
D|-5~-|
A|-5~-|
E|-3~-|
   Lead
e|--------------------------------|
B|--------------------------------|
G|-12-9-7-7-5-7-9--12-9-7-7-5-7-5-|
D|--x-x-x-x-x-x-x---x-x-x-x-x-x-x-|
A|-10-7-5-5-3-5-7--10-7-5-5-3-5-3-|
E|--------------------------------|

Verse:
   Rhythm
e|---------------------------------|
B|---------------------------------|
G|-5-5-55----------5-5-55----------|
D|-5-5-55--5-5-55--5-5-55--5-5-55~-|
A|-3-3-33--5-5-55--3-3-33--5-5-55~-|
E|---------3-3-33----------3-3-33~-|

   Lead
e|------3~-|
B|--5~5~---|
G|-5~5~5~--|
D|---------| x8
A|---------|
E|---------|

Bridge:
   Whoa!
e|----|
B|----|
G|----|
D|-5~-|
A|-5~-|
E|-3~-|

Chorus:
   Both
e|---------------------------------------------|
B|---------------------------------------------|
G|-55555555-1212121212121212-7-99--7-99--7-997-|
D|-xxxxxxxx--x-x-x-x-x-x-x-x-x-xx--x-xx--x-xxx-| x2
A|-33333333-1010101010101010-5-77--5-77--5-775-|
E|---------------------------------------------|

   Rhythm Guitar
e|-----------------------------------|
B|-----------------------------------|
G|-5555555555555555-7777777777777777-|
D|-xxxxxxxxxxxxxxxx-xxxxxxxxxxxxxxxx-|
A|-3333333333333333-5555555555555555-|
E|-----------------------------------|
   Lead Guitar
e|-----------------------------------------|
B|-----------------------------------------|
G|-7-55-55555555-77777777-1212121212121212-|
D|-x-xx-xxxxxxxx-xxxxxxxx--x-x-x-x-x-x-x-x-|
A|-5-33-33333333-55555555-1010101010101010-|
E|-----------------------------------------|

Verse:
   Both
e|------------|
B|------------|
G|-5-5-55-----|
D|-5-5-55--5~-|
A|-3-3-33--5~-|
E|---------3~-|

  Rhythm
e|-----------------|
B|-----------------|
G|-5-5-55----------|
D|-5-5-55--5-5-55~-|
A|-3-3-33--5-5-55~-|
E|---------3-3-33~-|

   Lead
e|------3~-|
B|--5~5~---|
G|-5~5~5~--|
D|---------| x4
A|---------|
E|---------|

Bridge:
   Rhythm
e|-----------------------------------|
B|-----------------------------------|
G|-----------------------------------|
D|-5555555555555555-5555555555555555-|
A|-5555555555555555-5555555555555555-|
E|-3333333333333333-3333333333333333-|

   Lead
e|----------------------------------|
B|----------------------------------|
G|-12121212121212121212121212121212-|
D|--x-x-x-x-x-x-x-x-x-x-x-x-x-x-x-x-|
A|-10101010101010101010101010101010-|
E|----------------------------------|

e|--------------------------------|
B|--------------------------------|
G|-1717171717-1717-17-17-17171717-|
D|--x-x-x-x-x--x-x--x--x--x-x-x-x-|
A|-1515151515-1515-15-15-15151515-|
E|--------------------------------|

Chorus:
   Both
e|---------------------------------------------|
B|---------------------------------------------|
G|-55555555-1212121212121212-7-99--7-99--7-997-|
D|-xxxxxxxx--x-x-x-x-x-x-x-x-x-xx--x-xx--x-xxx-| x2
A|-33333333-1010101010101010-5-77--5-77--5-775-|
E|---------------------------------------------|

   Rhythm Guitar
e|-----------------------------------|
B|-----------------------------------|
G|-5555555555555555-7777777777777777-|
D|-xxxxxxxxxxxxxxxx-xxxxxxxxxxxxxxxx-|
A|-3333333333333333-5555555555555555-|
E|-----------------------------------|
   Lead Guitar
e|-----------------------------------------|
B|-----------------------------------------|
G|-7-55-55555555-77777777-1212121212121212-|
D|-x-xx-xxxxxxxx-xxxxxxxx--x-x-x-x-x-x-x-x-|
A|-5-33-33333333-55555555-1010101010101010-|
E|-----------------------------------------|

Breakdown:!!!!!!!!!!!!!!!!!!
   Rhythm
e-------------------------------------|
B-------------------------------------|
G-5--5-55-----------5--5-55-----------|
D-5--5-55--5--5-55--5--5-55--5--5-55~-| x1
A-3--3-33--5--5-55--3--3-33--5--5-55~-|
E----------3--3-33-----------3--3-33~-|

   Lead
e|---------------------------------------|
B|---------------------------------------|
G|-5-5p4--5-55-5p4----7p5-------7p5-/9-7-|
D|-5----3-5-55----3-5----5-5-55----------| x2
A|-3------3-33------5------5-55----------|
E|------------------3------3-33----------|


   Rhythm
e|-------------------------------------|
B|-------------------------------------|
G|-5--5-55-----------5--5-55-----------|
D|-5--5-55--5--5-55--5--5-55--5--5-55~-| x1
A|-3--3-33--5--5-55--3--3-33--5--5-55~-|
E|----------3--3-33-----------3--3-33~-|

   Lead
e|----------------------------------------|
B|----------------------------------------|
G|-10101099977-101010999777---------------|
D|--------------------------101010999-----| x2
A|-----------------------------------1010-|
E|----------------------------------------|

Break:
  Both
e|-----|  e|---3~--3~--3~-|
B|-----|  B|--5~--5~------|
G|-----|  G|-5~--5~--5~---|
D|-3~~-|  D|--------------| x8
A|-3~~-|  A|--------------|
E|-1~~-|  E|--------------|

   Rhythm
e|-?-|
B|-?-|
G|-?-|
D|-?-|
A|-?-|
E|-?-|

   Lead
e|---3~--3~--3~-|
B|--5~--5~------|
G|-5~--5~--5~---|
D|--------------| x8
A|--------------|
E|--------------|

Chorus:
   Both
e|--------------------------------------|
B|-R------------------------------------|
G|-E-1212121212121212-7-99--7-99--7-997-|
D|-S--x-x-x-x-x-x-x-x-x-xx--x-xx--x-xxx-|
A|-T-1010101010101010-5-77--5-77--5-775-|
E|--------------------------------------|

e|---------------------------------------------|
B|---------------------------------------------|
G|-55555555-1212121212121212-7-99--7-99--7-997-|
D|-xxxxxxxx--x-x-x-x-x-x-x-x-x-xx--x-xx--x-xxx-|
A|-33333333-1010101010101010-5-77--5-77--5-775-|
E|---------------------------------------------|

   Rhythm Guitar
e|--------------------------------|
B|--------------------------------|
G|-5555555555555555-7777777-77777-|
D|-xxxxxxxxxxxxxxxx-xxxxxxx-xxxxx-|
A|-3333333333333333-5555555-55555-|
E|--------------------------------|
   Lead Guitar
e|-----------------------------------|
B|-----------------------------------|
G|-7-55-55555555-77777777-1212121212-|
D|-x-xx-xxxxxxxx-xxxxxxxx--x-x-x-x-x-|
A|-5-33-33333333-55555555-1010101010-|
E|-----------------------------------|

Outro:
  Both
e|------|
B|------|
G|-5~~~-|
D|-5~~~-|
A|-3~~~-|
E|------|

im not finished yet dudes but dont worry imma finish the breakdown chords
Tap to rate this tab
 
# A B C D E F G H I J K L M N O P Q R S T U V W X Y Z