Song name
# A B C D E F G H I J K L M N O P Q R S T U V W X Y Z

The Yordles - Fiddledum Fiddle Dee chords

Intro/Verse pt.1       Verse pt. 2

e|----------|              e|----------3--------|          
B|---3------|              B|--2-------0--------|
G|---4---3--|              G|--2---1---0---3----|
D|---4---4--|              D|--2---2---0---4----|
A|---2---4--|              A|--0---2---2---4----|
E|-------2--|              E|------0---3---2----|

Fiddledum, fiddle dee...    One by one they came...            

Chorus

e|------2-----------|
B|---3--3--2--------|
G|---4--2--2--4--3--|
D|---4--0--2--5--4--|   x2
A|---2-----0--5--4--|
E|------------3--2--|

I'll make them pay...


Verse 2 (same chords as verse 1)
 
Chorus

Bridge

e|---3--2------------|  e|---3--2-----------|
B|---0--3--2--3--2---|  B|---0--3--2--------|
G|---0--2--2--4--2---|  G|---0--2--2--3-----|
D|---0--0--2--4--2---|  D|---0--0--2--4-----|
A|---2-----0--2--0---|  A|---2-----0--4-----|
E|---3---------------|  E|---3--------2-----|

e|---3--2------------|
B|---0--3--2--3--2---|
G|---0--2--2--4--2---|
D|---0--0--2--4--2---|
A|---2-----0--2--0---|
E|---3---------------|


e|---3--2------------------------------------|
B|---0--3------------------------------------|
G|---0--2--3---------------------------------|
D|---0--0--4-(Strum this until solo starts)--|
A|---2-----4---------------------------------|
E|---3-----2---------------------------------|

Solo (Chorus is played in the background during solo twice)

Chorus

Outro

e|---3---------|
B|---0--2--4---|
G|---0--2--4---|
D|---0--2--4---| Repeat until end
A|---2--0--2---|
E|---3---------| 

Nevermore...
Tap to rate this tab
 
# A B C D E F G H I J K L M N O P Q R S T U V W X Y Z