Song name
# A B C D E F G H I J K L M N O P Q R S T U V W X Y Z

The Young And The Restless - Police Police tab

Help us improve GuitareTab! Take a short survey!
Intro/main riff
									 
E|-------------------------|-------------------------|
B|-------------------------|-------------------------|
G|-------8-------6h8-------|--------8------6h8-------|
D|---6-6---6----------7p6--|---6-6-----6--------7p6--|  
A|-------------------------|-------------------------|
E|-------------------------|-------------------------|

E|-------------------------|-------------------------|
B|-------------------------|-------------------------|
G|-------8-------6h8-------|--------8------6h8-------|
D|---6-6---6----------7p6--|---6-6-----6--------7p6--|  
A|-------------------------|-------------------------|
E|-------------------------|-------------------------|
	X2
E|-------------------------|-------------------------|
B|-------------------------|-------------------------|
G|-------8------6h8--------|---------8----6h8--------|
D|-----------------7p6-----|-------------------7p6---|   
A|---7-7---7---------------|----7-7----7-------------|
E|-------------------------|-------------------------|

E|-------------------------|-------------------------|
B|-------------------------|-------------------------|
G|-------8------6h8--------|---------8----6h8--------|
D|-----------------7p6-----|-------------------7p6---|   
A|---7-7---7---------------|----7-7----7-------------|
E|-------------------------|-------------------------|




E|-------------------------|-------------------------|         
B|-------------------------|-------------------------|
G|-------------------------|-------------------------|
D|--6--6--6--6--6--6--6--6-|--6--6--6--6--6--6--6--6-|
A|--6--6--6--6--6--6--6--6-|--6--6--6--6--6--6--6--6-|
E|--4--4--4--4--4--4--4--4-|--4--4--4--4--4--4--4--4-|
	X2
E|-------------------------|-------------------------|
B|-------------------------|-------------------------|
G|--9--9--9--9--9--9--9--9-|--9--9--9--9--9--9--9--9-|
D|--9--9--9--9--9--9--9--9-|--9--9--9--9--9--9--9--9-|
A|--7--7--7--7--7--7--7--7-|--7--7--7--7--7--7--7--7-|
E|-------------------------|-------------------------|


Bass plays main riff here until 1:21
Verse

E|-------------------------|-------------------------|
B|-------------------------|-------------------------|
G|-------8-------6h8-------|--------8------6h8-------|
D|---6-6---6----------7p6--|---6-6-----6--------7p6--|  
A|-------------------------|-------------------------|
E|-------------------------|-------------------------|

	X2
E|-------------------------|-------------------------|
B|-------------------------|-------------------------|
G|-------8------6h8--------|---------8----6h8--------|
D|-----------------7p6-----|-------------------7p6---|   
A|---7-7---7---------------|----7-7----7-------------|
E|-------------------------|-------------------------|


Pre-Chorus


E|-------------------------|-------------------------|
B|-------------------------|--8--8--8--8--8--8--8--8-|
G|--x--x--x--x--x--x--x--x-|--8--8--8--8--8--8--8--8-|
D|--x--x--x--x--x--x--x--x-|--8--8--8--8--8--8--8--8-|
A|--6--6--6--6--6--6--6--6-|--6--6--6--6--6--6--6--6-|
E|-------------------------|-------------------------|

Chorus

E|-------------------------|-------------------------|
B|-------------------------|-------------------------|
G|-------------------------|-------------------------|
D|-6-6-6-6-6-6-8-8-8-8-8-8-|-9-9-9-9-9-9-111111111111| <
                
Related for Police Police tab