Song name
# A B C D E F G H I J K L M N O P Q R S T U V W X Y Z

The Youth - Supernova Scum tab

Title	: Supernova Scum
Artist	: The Youth
Album	: Album na walang pamagat
Tabbed by	: Ferdie Esguerra
Created	: 14January2007
Email	: dhex_armageddon@yahoo.com


Symbols:

|   /   = slide up
|   \   = slide down
|   h   = hammer-on
|   p   = pull-off

Intro: D5-A5-C5-G5 (2X)

E|-----------|---------|---------|---------|
B|-----------|---------|---------|---------|
G|-------7---|---------|------5--|---------|
D|-------7---|------7--|------5--|------5--|
A|---5-------|------7--|--3------|------5--|
E|-----------|--5------|---------|--3------|

Bass Riffs:
     D	       A		C	  G
E|---------------------------------------------------------|
B|---------------------------------------------------------|
G|---------------------------------------------------------|
D|---------7--------------------5---3-2-3-2----------------|
A|---5-5-5---5-------7----3-3-3---3------------------------|
E|-------------5-5-5---5-----------------------------------|

1St Stanza:
     Dreams Flows from mountain tops I’m wishing you were here….
E|-----------|---------|---------|---------|
B|-----------|---------|---------|---------|
G|-------7---|---------|------5--|---------|
D|-------7---|------7--|------5--|------5--|
A|---5-------|------7--|--3------|------5--|
E|-----------|--5------|---------|--3------|

2nd Stanza:
     Scream on a Sunday afternoon I cannot hear…
E|-----------|---------|---------|---------|
B|-----------|---------|---------|---------|
G|-------7---|---------|------5--|---------|
D|-------7---|------7--|------5--|------5--|
A|---5-------|------7--|--3------|------5--|
E|-----------|--5------|---------|--3------|

Chorus:
     Try if you can superno violation… (4X)
E|-----------|---------|---------|---------|
B|-----------|---------|---------|---------|
G|-------7---|---------|------5--|---------|
D|-------7---|------7--|------5--|------5--|
A|---5-------|------7--|--3------|------5--|
E|-----------|--5------|---------|--3------|

Repeat 1st and 2nd stanza:
Chorus:




Guitar Solo:

E|---------------------------------------------------------|
B|------------7----------7----------7--8-7---7-------------|
G|---7-7--9-9---7-7--9-9---7-7--9-9--------9---9-----------|
D|---------------------------------------------------------|
A|---------------------------------------------------------|
E|---------------------------------------------------------|


E|---------------------------------------------------------|
B|------------7-8-8-7-8-10-10-10-8-8-7-7-7-8-8-7-----------|
G|--/-7-7-9-9------------------------------------7---------|
D|---------------------------------------------------------|
A|---------------------------------------------------------|
E|---------------------------------------------------------|


E|---------------------------------------------------------|
B|---------------8-8-7-----------8/10-10-10-10-10/12-10----|
G|---7-7-7-7-7-7-------7-7-7-7-7---------------------------|
D|---------------------------------------------------------|
A|---------------------------------------------------------|
E|---------------------------------------------------------|


E|---------------------------------------------------------|
B|---10-8-7-7h8-10-8-7-7h8-10-10---------------------------|
G|---------------------------------------------------------|
D|---------------------------------------------------------|
A|---------------------------------------------------------|
E|---------------------------------------------------------|

Repeat Chorus:
The end…

For my loving wife and son, Rosan & Kurt Cobain
Urrutia boy’s ng Malanday Valenzuela, my former band ‘Selda Singko’
Sa mga naniniwala pa sa akin maraming salamat!
For more info. And suggestion: Email me at dhex_armageddon@yahoo.com
Tap to rate this tab
# A B C D E F G H I J K L M N O P Q R S T U V W X Y Z