Song name
# A B C D E F G H I J K L M N O P Q R S T U V W X Y Z

The Zeest - Bc Sutta tab

i was just listening to the song and noticed a slight mismatch when i was
 playing with the original song....i checked out the tabs on net but there
 was no correct tab...so i decided to submit the 100% accurate tabs for you>>>

am sure that they are correct...

E-------2-------::--------------::-------------::--------------::
B-----2-----2---::-------7------::------8------::-------5------::
G---0-----0-----::-----7-----7--::----9-----9--::-----5-----5--::
D---------------::---7-----7----::--9-----9----::---5-----5----::
A---------------::--------------::-------------::--------------::
E---------------::--------------::-------------::--------------::

E-------2-------::--------------::-------------::----------0---::
B-----2-----2---::-------7------::------8------::--0--1--3-----::
G---0-----0-----::-----7-----7--::----9-----9--::--------------::
D---------------::---7-----7----::--9-----9----::--------------::
A---------------::--------------::-------------::--------------::
E---------------::--------------::-------------::--------------::

you just need to play these 2 times.....

CAUTION!!!SMOKING SUTTA IS INJURIOUS TO HEALTH..

eNJOY...
Tap to rate this tab
# A B C D E F G H I J K L M N O P Q R S T U V W X Y Z