Song name
# A B C D E F G H I J K L M N O P Q R S T U V W X Y Z

The Zeest - Sutta Na Mila tab

Help us improve GuitareTab! Take a short survey!
----------------------------------------------------------------------------
	             Sutta na mila - The Zeest
----------------------------------------------------------------------------
Tabbed by: Sir Strumalot

Email:eveningfitzz_j@hotmail.com

A friend of mine sent me this song and it kinda got stuck in my head so I figured some
might wanna play it, so here's how...The song's played in std. tuning,


Tuning: EBGDAE (Standard)

e|----3--3----2--2----3--3----3--3----3--3-----2--2-----3--3--------0--|
B|---3--3----3--3----5--5----3--3----3--3-----3--3-----5--5----0-1-3---|
G|--0-------2-------4-------5-------0--------2--------4----------------|(x2)
D|---------------------------------------------------------------------|
A|---------------------------------------------------------------------|
E|---------------------------------------------------------------------|

Pattern 1:

e|--3-3--xxxxxxx------------------------------------------|
B|--3-3--xxxxxxx--3-3--xx--7-7-x-7------------------------|
G|--4-4--xxxxxxx--3-3--xx--7-7-x-7------------------------|
D|--5-5--xxxxxxx--3-3--xx--7-7-x-7-(x2)-------------------|
A|--5-5--xxxxxxx--5-5--xx--5-5-x-5------------------------|
E|--3-3--xxxxxxx------------------------------------------|

Pattern 2:

e|--3-3-3-x---------------------------------------------------|
B|--3-3-3-x--7-7-x-7-7--xx--8-8--x--5-5-5-x-5-5---------------|
G|--4-4-4-x--7-7-x-7-7--xx--9-9--x--5-5-5-x-5-5---------------|
D|--5-5-5-x--5-7-x-7-7--xx--9-9--x--5-5-5-x-5-5--(x2)---------|
A|--5-5-5-x--5-5-x-5-5--xx--7-7--x--3-3-3-x-3-3---------------|
E|--3-3-3-x---------------------------------------------------|

After this, repeat pattern one again (x2).. The verses are pretty much Pattern 2, as is
chorus. The entire song revolves around those two patterns, so just listen to the song,
put things where they fit. For the rhythm, again listen to the song.

"Solo": The backing is again, Pattern 2.

e|-----------------------------------------------------------------|
B|--10b12r10--8--10--8-8-8------8-8-10-8-8-8-10-8------------------|
G|--------------------------7-9------------------------------------|
D|--------------------------------------------------(x2)-----------|
A|-----------------------------------------------------------------|
E|-----------------------------------------------------------------|

Oh man I can't be bothered to type the rest. It's so annoying! It's an easy
it out. If you need any part of it tabbed out, then email me...

Cheers :)
Related for Sutta Na Mila tab