Song name
# A B C D E F G H I J K L M N O P Q R S T U V W X Y Z

The Zen Circus - Canzone Di Natale tab

Canzone di Natale
Zen Circus

Intro:

e|-------------------8-7-5-3-------------------------|
b|---------5------------------5-3----3--6---6-5------|
g|--5----7--------5----------------5-----------------|
d|---------------------------------------------------|
a|---------------------------------------------------|
e|---------------------------------------------------|

e|---------------------------------------------------|
b|--3-----3--5b6r5--3--------------------------------|
g|-----5-------------------5-------------------------|
d|---------------------------------------------------|
a|---------------------------------------------------|
e|---------------------------------------------------|
Tap to rate this tab
# A B C D E F G H I J K L M N O P Q R S T U V W X Y Z