Song name
# A B C D E F G H I J K L M N O P Q R S T U V W X Y Z

The Zolas - Marlaina Kamikaze chords

Highlighted       Show chord diagrams
Capo 2nd Fret

INTRO

E----------------------------------------------------------------------|
B---1--1-3---1-----3-1-------0-1----1---1-3---1-----3-1--------0-------|
G-2--2-----2---2-----------0------2---2-----2---2------------0---------|
D----------------3-----3-2------------------------3------3-2-----------|   x2
A----------------------------------------------------------------------|
E----------------------------------------------------------------------|

VERSE ONE (play the intro underneath this)

Oh, Marlaina, you are something special

Please believe me when I tell you so

I'm a lion when we are one but without you

I'm a, I'm a

PRECHORUS

Am                F      E
Kamikaze, I'm a, high strung
Am                        F    E
I'm hanging up inside the hot sun
Am                         F      E
But think about you and I'm undone
                               Dm       E
Oh, Marlaina, kamikaze life is not fun, no, it's not fun

CHORUS

F                     Am
You're like a ghost to me
   C
On every corner
F                    Am
You're like a ghost to me
         C
On every man's arm
F                                Am                C
I know you're somewhere in the (somewhere in the city)
F                      Am                 E
You're like a ghost to me (you're like a ghost to me)

INSTRUMENTAL

E--------------------------------------------------------------------|
B---1--1-3---1-----3-1-------0-1----1---1-3---1-----3-1--------0-----|
G--------------------------0---------------------------------0-------|
D--------------------------------------------------------------------|
A-0--0-----0---0------------------0---0-----0---0--------------------|
E-----------------1----1-0-------------------------1-----1-0---------|

VERSE 2

Am                     F        E
Ran into your friends as they went to meet you
Am                F        E
I was a landmine they had tripped across
Am                     F E
I could see it in their eyes
Am                         F      E
They could tell that I'm a, I'm a, I'm a

PRECHORUS

INSTRUMENTAL ( Same chords as verse )

VERSE THREE

Am                      F            E
I'm breaking into sweats just trying to forget
Am                     F         E
All of those young men there to comfort you
Am                         F               E
They work on film sets and message you online
Am                                F                 E
And I know I know I know I gotta get this, I gotta get this off of my mind

But I must admit to you, darling

CHORUS ( to end )
Tap to rate this tab
# A B C D E F G H I J K L M N O P Q R S T U V W X Y Z