Song name
# A B C D E F G H I J K L M N O P Q R S T U V W X Y Z

The Zolas - Ancient Mars tab

Listen to the song for timings as they're very specific in places.

Intro:

E-----------------------0---0----3p0----------------------------0---0----3p0---------|
B------1----3p1------0--4/2----2------2---0------1---3p1------0-4/2----2-----2---0---|
G-0h2----2------2p0---------------------0---0--2---2-----2p0-------------------0---0-|
D------------------------------------------------------------------------------------|
A------------------------------------------------------------------------------------|
E------------------------------------------------------------------------------------|

|--------------------0---0----3p0----------------------------0---0----3p0-------0---3p0---|
|---1----3p1------0--4/2----2------2---0------1---3p1------0-4/2----2------2-2----2-----2-|
|-2---2------2p0---------------------0---0--2---2-----2p0---------------------------------|
|-----------------------------------------------------------------------------------------|
|-----------------------------------------------------------------------------------------|
|-----------------------------------------------------------------------------------------|

Underneath Intro (Palm Muted):

E----------------------------------------------------------------|
B----------------------------------------------------------------|
G----------------------------------------------------------------|
D----------------------------------------------------------------|
A--0-x-0----------3-x-3----------0-x-0----------3-x-3---x-3-2----|
E--------x-3-1-3--------x-3-1-3--------x-3-1-3-----------------3-|

|---------------------------------------------------------------|
|---------------------------------------------------------------|
|---------------------------------------------------------------|
|---------------------------------------------------------------|
|--0-x-0----------3-x-3----------0-x-0----------3-x-3---x-3-x-3-|
|--------x-3-1-3--------x-3-1-3--------x-3-1-3------------------|

Verse(Palm Muted):

E-----------------------------------------------|
B-----------------------------------------------|
G-----------------------------------------------|
D-----------------------------------------------| (x3)
A--0---0--------------3---3---------------------|
E-3--------3-1---1---3--------3-1---1-1---3-----| 

Chorus (Palm Muted):

E----------------------------------------------------------------|
B----------------------------------------------------------------|
G----------------------------------------------------------------|
D----------------------------------------------------------------|
A--0-x-0----------3-x-3----------0-x-0----------3-x-3---x-3-2----|
E-3------x-3-1-3--------x-3-1-3--------x-3-1-3-----------------3-|

|---------------------------------------------------------------|
|---------------------------------------------------------------|
|---------------------------------------------------------------|
|---------------------------------------------------------------|
|--0-x-0----------3-x-3----------0-x-0----------3-x-3---x-3-x-3-|
|-3------x-3-1-3--------x-3-1-3--------x-3-1-3------------------|

Verse x3

Chorus

Verse (Palm Muted):

E-----------------------------------------------|
B-----------------------------------------------|
G-----------------------------------------------|
D-----------------------------------------------| (x3)
A--0------------------3-------------------------|
E----------3-1----------------3-1---1-----------| 

Chorus (No Guitar)

Interlude:

E-----------------------0---0----3p0----------------------------0---0----3p0---------|
B------1----3p1------0--4/2----2------2---0------1---3p1------0-4/2----2-----2---0---|
G-0h2----2------2p0---------------------0---0--2---2-----2p0-------------------0---0-|
D------------------------------------------------------------------------------------|
A------------------------------------------------------------------------------------|
E------------------------------------------------------------------------------------|

Chorus:

E-----------------------0---0----3p0----------------------------0---0----3p0---------|
B------1----3p1------0--4/2----2------2---0------1---3p1------0-4/2----2-----2---0---|
G-0h2----2------2p0---------------------0---0--2---2-----2p0-------------------0---0-|
D------------------------------------------------------------------------------------| To End
A------------------------------------------------------------------------------------|
E------------------------------------------------------------------------------------|

Last Repeat Ends with this:

E-------|
B---0~--|
G-0h2~--|
D-------|
A-------|
E-------|

Underneath Outro & Chorus (Palm Muted):

E----------------------------------------------------------------|
B----------------------------------------------------------------|
G----------------------------------------------------------------|
D----------------------------------------------------------------| To End
A--0-x-0----------3-x-3----------0-x-0----------3-x-3---x-3-2----|
E--------x-3-1-3--------x-3-1-3--------x-3-1-3-----------------3-|
Tap to rate this tab
 
# A B C D E F G H I J K L M N O P Q R S T U V W X Y Z