Song name
# A B C D E F G H I J K L M N O P Q R S T U V W X Y Z

The Zolas - Knot In My Heart tab

Guitar tab // Knot In My Heart \\ The Zolas
Standard Tuning

Let me know if there's anything that needs changing, but otherwise enjoy :)


Intro

P.M.
E|-----------------|-----------------|
B|-----------------|-----------------|
G|-----------------|-----------------|
D|-----------------|-----------------|
A|-----------------|-----------------|
E|-2--2--2-2--2--2-|-2--2--2-5--5--5-|  x3

E|-----------------|-----------------|-----------------|
B|-----------------|-----------------|-----------------|
G|-----------------|-----------------|-----------------|
D|-----------------|-----------------|-----------------|
A|-----------------|-----------------|-5--5--5---------|
E|-2--2--2-2--2--2-|-2--2--2-5--5--5-|---------5--5--5-|

E|------------------|------------------|------------------|----------|
B|------------------|------------------|------------------|----------|
G|------------------|------------------|------------------|----------|
D|------------------|------------------|------------------|----------|
A|---------/5-5-----|---------/2-2-2-2-|-2-2-1-1-------/5-|-5-5-5-5--|
E|-2-2-2-2------4-4-|-4-4-4-4----------|---------5-5-5----|----------|  x2

Verse 1

P.M.
E|------------------|------------------|------------------|----------|
B|------------------|------------------|------------------|----------|
G|------------------|------------------|------------------|----------|
D|------------------|------------------|------------------|----------|
A|---------/5-5-----|---------/2-2-2-2-|-2-2-1-1-------/5-|-5-5-5-5--|
E|-2-2-2-2------4-4-|-4-4-4-4----------|---------5-5-5----|----------|  x4

E|-----------------|-----------------|-----------------|-----------------|
B|-----------------|-----------------|-----------------|-----------------|
G|-----------------|-----------------|-----------------|-----------------|
D|-----------------|-----------------|-----------------|-----------------|
A|-6--6--6-6--6--6-|-5--5--5---------|-6--6--6-6--6--6-|-5--5--5---------|
E|-----------------|---------7--7--7-|-----------------|---------7--7----|

Chorus

P.M.
E|-----------------|-----------------|
B|-----------------|-----------------|
G|-----------------|-----------------|
D|-----------------|-----------------|
A|---------5--5--5-|---------2--2--2-|
E|-5--5--5---------|-2--2--2---------|  x4

No mute
E|-----------------|-----------------|-----------------|-----------------|-----------------|
B|-----------------|-----------------|-----------------|-----------------|-----------------|
G|-----------------|-----------------|-----------------|-----------------|-7--7--7---------|
D|-4--4--4-4--4--4-|-4--4--4-7--7--7-|-4--4--4-4--4--4-|-4--4--4-7--7--7-|-7--7--7-7--7--7-|
A|-4--4--4-4--4--4-|-4--4--4-7--7--7-|-4--4--4-4--4--4-|-4--4--4-7--7--7-|-5--5--5-7--7--7-|
E|-2--2--2-2--2--2-|-2--2--2-5--5--5-|-2--2--2-2--2--2-|-2--2--2-5--5--5-|---------5--5--5-|

Verse 1

P.M.                                                                      No mute
E|-----------------|-----------------|-----------------|-----------------|-----------------|
B|-----------------|-----------------|-----------------|-----------------|-----------------|
G|-----------------|-----------------|-----------------|-----------------|-7--7--7---------|
D|-4--4--4-4--4--4-|-4--4--4-7--7--7-|-4--4--4-4--4--4-|-4--4--4-7--7--7-|-7--7--7-7--7--7-|
A|-----------------|-----------------|-----------------|-----------------|-5--5--5-7--7--7-|
E|-----------------|-----------------|-----------------|-----------------|---------5--5--5-|

P.M.                                                                      No mute
E|-----------------|-----------------|-----------------|-----------------|-----------------|
B|-----------------|-----------------|-----------------|-----------------|-----------------|
G|-----------------|-----------------|-----------------|-----------------|-7--7--7---------|
D|-----------------|-----------------|-----------------|-----------------|-7--7--7-7--7--7-|
A|-----------------|-----------------|-----------------|-----------------|-5--5--5-7--7--7-|
E|-2--2--2-2--2--2-|-2--2--2-5--5--5-|-2--2--2-2--2--2-|-2--2--2-5--5--5-|---------5--5--5-|

P.M.
E|-----------------|-----------------|-----------------|-----------------|
B|-----------------|-----------------|-----------------|-----------------|
G|-----------------|-----------------|-----------------|-----------------|
D|-----------------|-----------------|-----------------|-----------------|
A|-6--6--6-6--6--6-|-5--5--5---------|-6--6--6-6--6--6-|-5--5--5---------|
E|-----------------|---------7--7--7-|-----------------|---------7--7----|

Chorus

P.M.
E|-----------------|-----------------|
B|-----------------|-----------------|
G|-----------------|-----------------|
D|-----------------|-----------------|
A|---------5--5--5-|---------2--2--2-|
E|-5--5--5---------|-2--2--2---------|  x8

No mute

E|-----------------|-----------------|-----------------|-----------------|
B|-----------------|-----------------|-----------------|-----------------|
G|-----------------|-----------------|-----------------|-----------------|
D|-4--4--4-4--4--4-|-4--4--4-7--7--7-|-4--4--4-4--4--4-|-4--4--4-7--7--7-|
A|-4--4--4-4--4--4-|-4--4--4-7--7--7-|-4--4--4-4--4--4-|-4--4--4-7--7--7-|
E|-2--2--2-2--2--2-|-2--2--2-5--5--5-|-2--2--2-2--2--2-|-2--2--2-5--5--5-|
Tap to rate this tab
# A B C D E F G H I J K L M N O P Q R S T U V W X Y Z