Song name
# A B C D E F G H I J K L M N O P Q R S T U V W X Y Z

The Zolas - Cold Moon tab

-------------------------------------------------------------------------------
                             COLD MOON - The Zolas
-------------------------------------------------------------------------------
Tabbed by: Martzz
E-mail: trizzley(ATT)gmail(DOTT)com

Tuning: Standard
e|--------------------2-----4--|
B|-----------2--2-----4-----5--|
G|-----1-----2--2-----4-----4--|
D|-----2-----2--2-----4-----6--|
A|-----2--0--0--0--2--2--4--4--|
E|--0--------------------------|  x2

e|--------------------------4--|
B|-----------2--2-----------5--|
G|-----1-----2--2-----------4--|
D|-----2-----2--2-----------6--|
A|-----2--0--0--0--2--3--4--4--|
E|--0--------------------------|

e|--------------------|
B|-----4--5-----------|
G|--5--------5--6-----|
D|-----------------6--|
A|--------------------|
E|--------------------|


I've basically done this just from listening to the song.  This is the first tab that 
I've attempted so I may be completely off.  Therefore, feel free to post feedback/corrections.
Tap to rate this tab
# A B C D E F G H I J K L M N O P Q R S T U V W X Y Z