Guitaretab - guitar tabs
Song name
# A B C D E F G H I J K L M N O P Q R S T U V W X Y Z

The Zou - Sleazy Love Song For The Shallow tab

Artist:	The Zou
Song:	Sleazy (Love Song for the Shallow)
Album:	The Zou

-Standard Tuning

-Chord Progression:
 C  E7  Am  F  G  C


Acoustic Intro:

E|------------------0----0---0--0---0-------------------------------|
B|------------1-----0--------0--0---1-------------------------------|
G|---------0--------1--------1--1---2-------------------------------|
D|------2-----------0--------0--0---2----0--2--2h3--3--3--2--0--2---|
A|-3----------------2--------2--2---0-----------------------------3-|
E|------------------------------------------------------------------|

E|-------------0----0---0--0---0--0--0-0--|
B|-------1-----0--------0--0---1--1--1-1--|
G|----0--------1--------1--1---2--2--2-2--|    F  F  F  (G)
D|--2----------0--------0--0---2--2--2-2--|
A|-------------2--------2--2---0--0--0-0--|
E|----------------------------------------|

Intro 2:
C  E7  Am  F  (G)  C  E7  Am  F  (G)

C         E7                Am
Iíve been looking to find myself
        F           C
Can you help me out tonight
          E7                 Am
Iíve been looking to know me better
         F                C
And what better time than right now
E7       Am       F
Tonight, tonight, tonight
C    E7                     Am
Only looking to make things whole
F                   G    C
Discover that stunt that stole your style
    E7               Am
The world is moving, proved untrue
     F             G
And Iím so bitter


C               E7         Am
Sleazy, and you know, that I know
           F             G    C
Youíre the only one, the only one
         E7                 Am
That can please me, and you know
     F              G
That Iím no better


C        E7           Am
Fridayís gonna be the night
   F             G  C (stop)
To start my life at tight
    E7                  Am
Iím platinum yíall, Iím crystal clear
    F       G  C
And I smell so nice
    E7                 Am
The air closes in, the walls are thin
    F                 G
The room is spinning
C      E7              Am
Whoís styliní now, Iím up somehow
    F                 G
And Iím still living

[ Tab from: http://www.guitaretab.com/t/the-zou/93814.html ]
C               E7         Am
Sleazy, and you know, that I know
           F             G    C
Youíre the only one, the only one
         E7                 Am
That can please me, and you know
      F             G
That Iím no better
C               E7         Am
Sleazy, and you know, that I know
           F             G    C
Youíre the only one, the only one
         E7                 Am
That can please me, and you know
      F             G
That Iím no better

Solo:
E|--------------------------------------------------------------------|
B|-8---8---9---9---10---------------8---8---9---9---12-10-9-10---9--10|
G|---9---9---9---9----9-7-5ó-7-9-7----9---9---9---9-------------------|
D|--------------------------------------------------------------------|
A|--------------------------------------------------------------------|
E|--------------------------------------------------------------------|

E|----------------------------------------------------------12--------|
B|-13----13-12-12-------------------------------13----13-12-----------|
G|----14----------13-13-13h14--7-9-10-10-10-9-7----14-----------------|
D|--------------------------------------------------------------------|
A|--------------------------------------------------------------------|
E|--------------------------------------------------------------------|
             "And I'm so bitter!"
E|--------------------------------------------------------------------|
B|--------------------------------------------------------------------|
G|-13ó13h14---7-9-10-9--7-5-4-4-1-------------------------------------|
D|--------------------------------------------------------------------|
A|--------------------------------------------------------------------|
E|--------------------------------------------------------------------|

C               E7         Am
Sleazy, and you know, that I know
           F             G    C
Youíre the only one, the only one
         E7                 Am
That can please me, and you know
      F             G
That Iím no better


C    E7                Am
Only looking to find myself
        F           G  C
Can you help me out to-night
          E7                 Am
Iíve been looking to know me better
     F           G    C
What better time than right now
E7       Am       F
Tonight, tonight, tonight


Repeat ACOUSTIC INTRO


     F             G
And Iím so bitter

C               E7         Am
Sleazy, and you know, that I know
           F             G    C
Youíre the only one, the only one
         E7                 Am
That can please me, and you know
      F             G
That Iím no better
C               E7         Am
Sleazy, and you know, that I know
           F             G    C
Youíre the only one, the only one
         E7                 Am
That can please me, and you know
      F (stop)
That Iím no better

END

The Zou is a phenomenal band from Youngstown, OH.  Check them out atÖ

Myspace.com/thezou

-Paul
Related for Sleazy Love Song For The Shallow tab