Song name
# A B C D E F G H I J K L M N O P Q R S T U V W X Y Z

Theatre Of Tragedy - A Rose For The Dead tab

Info: Tragedy, Theatre of- from Germany
http://www.theatreoftragedy.com/


Theatre Of Tragedy
A Rose For The Dead
Tuning: Standard D

* - Palm Mute  ~ - Vibrato
H - Hammer On  P - Pull Off
/ - Slide Up   \ - Slide Down

|----------------------------------|
|----------------------------------|
|----------------------------------|
|-------5--------------------------|
|-----2---2-------2-5---2---4------|
|-0---------3-5-----------5-----5--|

|----------------------------------|
|----------------------------------|
|----------------------------------|
|-------5---------------------2----|
|-----2---2-------2-5---2-2H3------|
|-0---------3-5--------------------|

|----------------------------------|
|----------------------------------|
|----------------------------------|
|-------5-----------4-------2------|
|-----2---2-------2-----2-0-----0--|
|-0---------3-5--------------------|

|----------------------------------|
|----------------------------------|
|----------------------------------|
|-------5-----------4-------5------|
|-----2---2-------2-----2-3-----3--|
|-0---------3-5--------------------|

|----------------------------------|
|----------------------------------|
|----------------------------------|
|-----2-4-5------------------------|
|-----0-2-3---------5---2~~~-------|
|-0(0)-----------------------------|
  *

|----------------------------------|
|----------------------------------|
|----------------------------------|
|-----2-4-5------------------------|
|-----0-2-3---------7---5~~~-------|
|-0(0)-----------------------------|
  *

|------------------------------|------|
|------------------------------|------|
|------------------------------|------|
|------5-4-----5-4-----5-------|------|
|-2----3-2-----3-2-----3-2-----|------|
|-0----------------------0-----|000-0-|
Tap to rate this tab
# A B C D E F G H I J K L M N O P Q R S T U V W X Y Z