Song name
# A B C D E F G H I J K L M N O P Q R S T U V W X Y Z

Theatres Des Vampires - Queen Of The Damned tab

Theatre des Vampires
Queen Of The Damned

Tabbed by catrina@bsdmail.org from Chile =)

INTRO & VERSE
e|----------------------------|
B|----------------------------|
G|----------------------------|
D|---10xxx-8xxxx-5xxxx 6xxxx--|
A|---10xxx-8xxxx-5xxxx-6xxxx--|
E|---8-xxx-6xxxx-3xxxx-4xxxx--|

RIFF
e|-----------------------------------------------------------------|
B|-----------------------------------------------------------------|
G|---8-8-8-7-0----8-8-8-8-7-8-10----8-8-8-7-0---8-7-0---8-7-0---8-7|x2
D|-----------------------------------------------------------------|
A|-----------------------------------------------------------------|
E|-----------------------------------------------------------------|
When the sky become dark
I come out from my coffin
In search of my new victim
Unholy passion... hot blood on my mouth
Pointed teeth on your neck
I feel your soul inside me

BRIDGE
e|-----------------------------|
B|-----------------------------|
G|----------8-x-x--------------|
D|---10-x-x-8-x-x-8-x-x-5-x-x-x|
A|---10-x-x-6-x-x-8-x-x-5-x-x-x|
E|---8--x-x-------6-x-x-3-x-x-x|
I feel your enjoyment...
I feel you... in my veins...

VERSE + RIFF
e|----------------------------|
B|----------------------------|
G|----------------------------|
D|---10xxx-8xxxx-5xxxx 6xxxx--|
A|---10xxx-8xxxx-5xxxx-6xxxx--|
E|---8-xxx-6xxxx-3xxxx-4xxxx--|
When the light leaves the earth
I rise from my grave
Queen of the damned... I love the blood
I cut the throat of innocent virgins! For my thirst

CHORUS
e|-----------------------------|
B|-----------------------------|
G|----------8-x-x--------------|
D|---10-x-x-8-x-x-8-x-x-5-x-x-x|
A|---10-x-x-6-x-x-8-x-x-5-x-x-x|
E|---8--x-x-------6-x-x-3-x-x-x|
She who loves the pain!
She who loves the suffering!
She who loves the lust!
She that want satisfy my thirst!
She who loves the blood!
She who loves the death!
She who loves the evil!

VERSE + RIFF
e|----------------------------|
B|----------------------------|
G|----------------------------|
D|---10xxx-8xxxx-5xxxx 6xxxx--|
A|---10xxx-8xxxx-5xxxx-6xxxx--|
E|---8-xxx-6xxxx-3xxxx-4xxxx--|
.............satisfy my thirst!

SOLO VIOLIN
e|---------------------------------|
B|---------------------------------|
G|-----------------8--8------------|
D|------10---10---8--8---6--6--3--5|
A|----10---10----6--6---6--6--3--5-|
E|---8----8------------4--4--1--3--|

VOICE
e|----------------------------|
B|----------------------------|
G|----------8-----------------|
D|---10-----8----6----3----5--|
A|---10-----6----6----3----5--|
E|---8-----------4----1----3--|
Oh! I feel you... I feel... in my veins...

VERSE2
e|----------------------------|
B|----------------------------|
G|----------8xx---------------|
D|---10xxx--8xx--6xx--3xxx-5xx|
A|---10xxx--6xx--6xx--3xxx-5xx|
E|---8xxxx-------4xx--1xxx-3xx|
She who loves the pain!
She who loves the suffering!
She who loves the lust!
She that want satisfy my thirst!
She who loves the blood!
She who loves the death!
She who loves the evil!
She that want satisfy my thirst!

ENDING + RIFF
e|----------------------------|
B|----------------------------|
G|----------------------------|
D|---10xxx-8xxxx-5xxxx 6xxxx--|
A|---10xxx-8xxxx-5xxxx-6xxxx--|
E|---8-xxx-6xxxx-3xxxx-4xxxx--|
.............satisfy my thirst!
Tap to rate this tab
# A B C D E F G H I J K L M N O P Q R S T U V W X Y Z