Thee Oh Sees - Mega-feast tab

"Mega-Feast" by Thee Oh Sees
from Warm Slime
Tabbed by Mr. Cancelled (dopasaurusrex@gmail.com)
http://www.myspace.com/ohsees

Standard Tuning (e,B,G,D,A,E)

I'm pretty sure Dwyer doesn't play in standard tuning, but here it is anyway. Thee Oh Sees
are a pretty loose band, so don't be afraid to play around with the riffs.

Intro
e------------------------------------|
b------------------------------------|
g------------------------------------|
d------------------------------------|
a------------------------------------|
e-6-6-6-6-6-6-6-6-4-4-4-4-4-4-4-5----|

e------------------------------------|
b------------------------------------|
g------------------------------------|
d------------------------------------|
a------------------------------------|
e-6-6-6-6-6-6-6-6-6-4-4-4-4-4-5-5----|x3

Verse

Information for you, information for me...
e------------------------------------|
b------------------------------------|
g------------------------------------|
d------------------------------------|
a-5-5-5-5-5-5-5-5-5-5-5-5-5-5-5-5----|
e-6-6-6-6-6-6-6-6-6-6-6-6-6-6-6-6----|x4

Chorus

Ah ah ah ah ah, uh ah ah ah ah ah ah...
e------------------------------------|
b------------------------------------|
g------------------------------------|
d------------------------------------|
a-5-5-5-5-5-5-5-5-5-5-5-5-5-5-5-5----|
e-6-6-6-6-6-6-6-6-6-6-6-6-6-6-6-6----|x4

Verse

Information for you, information for me
e------------------------------------|
b------------------------------------|
g------------------------------------|
d------------------------------------|
a------------------------------------|
e-6-6-6-6-6-6-6-6-4-4-4-4-4-4-4-5----|x4

Chorus

Ah ah ah ah ah, uh ah ah ah ah ah ah...
e------------------------------------|
b------------------------------------|
g------------------------------------|
d------------------------------------|
a-5-5-5-5-5-5-5-5-5-5-5-5-5-5-5-5----|
e-6-6-6-6-6-6-6-6-6-6-6-6-6-6-6-6----|x4

Break
e------------------------------------|
b------------------------------------|
g------------------------------------|
d------------------------------------|
a-6-6-6-6-6-6-6-6-6-3-3-3-3-3-3-3----|
e-4-4-4-4-4-4-4-4-4-1-1-1-1-1-1-1----|

e------------------------------------|
b------------------------------------|
g------------------------------------|
d------------------------------------|
a-5-5-5-5-5-5-5-5-5-1-1-1-1-3-3-5----|
e------------------------------------|

e------------------------------------|
b------------------------------------|
g------------------------------------|
d-------------------3-3-3------------|
a-5-5-5-5-5-5-5-5-5-------3-3-3-5----|
e------------------------------------|

e------------------------------------|
b------------------------------------|
g------------------------------------|
d------------------------------------|
a-5-5-5-5-5-5-5-5-5-5-5-5-5-5-5-5----|
e-6-6-6-6-6-6-6-6-6-6-6-6-6-6-6-6----|

Don't play anything during the next verse.

Chorus

Ah ah ah ah ah, uh ah ah ah ah ah ah...
e------------------------------------|
b------------------------------------|
g------------------------------------|
d------------------------------------|
a-5----------------------------------|
e-6----------------------------------|x2

e------------------------------------|
b------------------------------------|
g-7\---------------------------------|
d------------------------------------|
a------------------------------------|
e------------------------------------|
Pick your way up the fretboard, starting on the 7th fret.

Break
e------------------------------------|
b------------------------------------|
g------------------------------------|
d------------------------------------|
a-6-6-6-6-6-6-6-6-6-3-3-3-3-3-3-3----|
e-4-4-4-4-4-4-4-4-4-1-1-1-1-1-1-1----|

e------------------------------------|
b------------------------------------|
g------------------------------------|
d------------------------------------|
a-5-5-5-5-5-5-5-5-5-1-1-1-1-3-3-5----|
e------------------------------------|

e------------------------------------|
b------------------------------------|
g------------------------------------|
d-------------------3-3-3------------|
a-5-5-5-5-5-5-5-5-5-------3-3-3-5----|
e------------------------------------|

e------------------------------------|
b------------------------------------|
g------------------------------------|
d------------------------------------|
a-5----------------------------------|
e------------------------------------|

Turn up the reverb and enjoy.
Tap to rate this tab
 
# A B C D E F G H I J K L M N O P Q R S T U V W X Y Z