Song name
# A B C D E F G H I J K L M N O P Q R S T U V W X Y Z

Thee Oh Sees - So I Guess We Cant Hang Out tab

Repeat throughout
e-----------------------------------------------------------------------------|
b-----------------------------------------------------------------------------|
g---------------------------------------------------0-------------------------|
d------------------3---------------------3--------2---------3-----------------|
a----0-3---------5----------0-3--------5--------3---------5-------0-3---------|
e---1----------6----------1----------6------------------6-------1-------------|

Think it ends on..
e------------------------------------|
b------------------------------------|
g------------------------------------|
d------3-----------------------------|
a----0-------------------------------|
e--1---------------------------------|

Lyrics:

Don't you realize,
it's not as simple as that
I took the long way back
to my simple town
Well I guess we can't hang out
because of our ups and downs
It's not as simple as that
so I took the long way back
to my side of town..
Tap to rate this tab
# A B C D E F G H I J K L M N O P Q R S T U V W X Y Z