Song name
# A B C D E F G H I J K L M N O P Q R S T U V W X Y Z

Their Souls For Gold - Signs tab

D ------------------------------------|
A ------------------------------------|
F ------------------------------------|
C ------------------------------------| x2 Repeat
G -0-10-8-0-8-7-0-7-5-5-5-5-8-8-8-8---|
C ------------------------------------|

D ------------------------------------|
A ------------------------------------|
F ------------------------------------|
C ----------8-7-8-10------------------|
G -0-10-8-0----------5-5-5-5-8-8-8-8--|
C ------------------------------------|

D ------------------------------------|
A ------------------------------------|
F ------------------------------------|
C ------------------------------------|
G -0-10-8-0-8-7-0-7-------------------|
C ------------------------------------|
Tap to rate this tab
# A B C D E F G H I J K L M N O P Q R S T U V W X Y Z