Song name
# A B C D E F G H I J K L M N O P Q R S T U V W X Y Z

Theives And Liars - Slavin Away tab

Theives & Liars - Slavin' Away
http://www.thievesandliars.com/

Intro
  A
e-----------------|
B-2222222222222---|
G-2222222222222---|
D-2222222222222---|
A-0000000000000---|
E-----------------|
The rhythm for this part isn't too difficult to figure out.

Verse
  A5
e-----------------------------|
B-----------------------------|
G-2---------------------------|
D-2---------------------------| x12
A-0-0-3-0-5-0-6-0-5-0-3-0-3h5-|
E-----------------------------|
  
  A5
e-------------------------|
B-------------------------|
G-------------------------|
D-2-----------------------| x2
A-2-----------------------|
E-0-0-3-0-5-6-0-5-0-3-3h5-|

  A5
e-----------------------------|
B-----------------------------|
G-2---------------------------|
D-2---------------------------| x2
A-0-0-3-0-5-0-6-0-5-0-3-0-3h5-|
E-----------------------------|

Chorus
  C5 D5 A5      G5       D5      A5      E5
e----------------------------------------------|
B----------------------------------------------|
G-55-77------------------7---------------9-----|
D-55-77-7-------5--------7-------7-------9-----|
A-33-55-7-------5--------5-------7-------7-----|
E-------5-------3----------------5-------------|

  A5      G5      D5     A5       E5
e-----------------------------------------|
B-----------------------------------------|
G-----------------7---------------9-------|
D-7-------5-------7-------7-------9-------|
A-7-------5-------5-------7-------7-------|
E-5-------3---------------5---------------|

Verse
  A5
e-----------------------------|
B-----------------------------|
G-2---------------------------|
D-2---------------------------| x8
A-0-0-3-0-5-0-6-0-5-0-3-0-3h5-|
E-----------------------------|
  E5
e-------------------------|
B-------------------------|
G-------------------------|
D-2-----------------------| x2
A-2-----------------------|
E-0-0-3-0-5-6-0-5-0-3-3h5-|

  A5
e-----------------------------|
B-----------------------------|
G-2---------------------------|
D-2---------------------------| x2
A-0-0-3-0-5-0-6-0-5-0-3-0-3h5-|
E-----------------------------|

Chorus
  C5 D5 A5      G5       D5      A5      E5
e----------------------------------------------|
B----------------------------------------------|
G-55-77------------------7---------------9-----|
D-55-77-7-------5--------7-------7-------9-----|
A-33-55-7-------5--------5-------7-------7-----|
E-------5-------3----------------5-------------|

  A5      G5      D5     A5       E5
e-----------------------------------------|
B-----------------------------------------|
G-----------------7---------------9-------|
D-7-------5-------7-------7-------9-------|
A-7-------5-------5-------7-------7-------|
E-5-------3---------------5---------------|

I don't have the solo tabbed out yet, but the chords played beneath it are
 the same as the chorus. The whole thing is in the Am Pentatonic scale, so 
improvising over it is really easy.  The bass plays the same chords the 
entire time through the bridge.

Outro
A5
e-----------------------------|
B-----------------------------|
G-2---------------------------|
D-2---------------------------| x4
A-0-0-3-0-5-0-6-0-5-0-3-0-3h5-|
E-----------------------------|

e-------------------------------------------|
B-------------------------------------------|
G-2-2---------------------------------------|
D-2-2---------------------------------------|
A-0-0---------------------------------------|
E-------------------------------------------|

There's the whole song, and the solo will be up soon...

Tap to rate this tab
 
# A B C D E F G H I J K L M N O P Q R S T U V W X Y Z