Guitaretab - guitar tabs
Song name
# A B C D E F G H I J K L M N O P Q R S T U V W X Y Z

Thelonious Monk - Blue Monk tab

Blue monk...
This is just a single line sort of thing, something simple compared to others- i found, 
was going to try putting it into respectable time format  but it would have been too 
to understand otherwise, so just play it the same way the actual song Goes.
[ Tab from: http://www.guitaretab.com/t/thelonious-monk/118646.html ]
 Q Q Q Q-M        Q Q Q Q-M         Q-Q-Q-Q-Q-Q-Q-Q----------------------|     Q Q-M
|----------------|-----------------|-------------------|-----------------|
|----------------|-----------------|-------------------|-----------------|
|----------------|-0-1-2-3---------|---0---------------|-----------------|
|--0-1-2-3-------|-----------------|-3---3-2-1----0----|-----------------|
|----------------|-----------------|------------4------|-4-3-------------|
|----------------|-----------------|----------1--------|-----------------|
                                                        (B4 on offbeat)
|----------------|-----------------|-------------------|---------------|
|----------------|---0-1-2---------|-------------------|---------------|
|-0-1-2-3--------|-3---------------|---0---------------|---------------|
|----------------|-----------------|-3---3-2-1----0----|----3-3-3-3----|
|----------------|-----------------|------------4------|---------------|
|----------------|-----------------|----------1--------|--------------1|
                                                        (Triplet speed)
|----------------|-----------------|-------------------|---------------|
|----------------|-----------------|-------------------|---------------|
|---0------------|------0----------|----0--------------|---------------|
|-3---3-2-1----0-|----3---3-2-1----|--3---3-2-1--------|---------------|
|------------4---|-----------------|-------------------|-4-------1-----|
|----------1-----|--------------1--|-------------1-----|---------------|
Related for Blue Monk tab