Song name
# A B C D E F G H I J K L M N O P Q R S T U V W X Y Z

Them Crooked Vultures - Elephants tab

-------------------------------------------------------------------------------
		     Them Crooked Vultures - Elephants
-------------------------------------------------------------------------------
Tabbed by: The_Raven
Email: Just use my profile if need be

Tuning: EADGBe

Hey, this is what I've transcribed from the snippets of Them Crooked Vultures on 
Enjoy!

Riff A

e|-----------------------------------|
B|------------------------------1--3-|
G|---0-----------------------3-------|
D|---0-(0)--2p0-----3p0--------------|     x 4
A|---x-(x)--------1-------1----------|
E|---3--3----------------------------|

Riff B

e|-----------------------------------|
B|------------------------------1--3-|
G|---0--0--------------------3-------|
D|---0--0--2p0-----3p0---------------|     x 8
A|---x--x--------1-------1-----------|
E|---3--3----------------------------|
(Hit harder, and the song speeds up)

For the first four repetitions, another guitar just plays

e|---------------|
B|---------------|
G|--0----0---0-0-|
D|--0----0---0-0-|
A|--x----x---x-x-|
E|--3----3---3-3-|

Over the top of the above riff. For the next four repetitions, both guitars play B.

Riff C

e|--------------------------------|
B|--------------------------------|
G|-0----------------------------0-|
D|-0---2p0--3p0-----2p0---------0-|   x 2
A|-x-------------1-------1-(0)--x-|
E|-3----------------------------3-|

Riff D

e|-------------|
B|-------------|
G|-----------0-|
D|-2p0-------0-|   x  2
A|------1p0--x-|
E|-----------3-|

Riff E


e|---------------------------|
B|---------------------------|
G|-0--0---0--0---0--0-0-0--0-|
D|-0--0---0--0---0--0-0-0--0-|  x 1
A|-x--x---x--x---x--x-x-x--x-|
E|-3--3---3--3---3--3-3-3--3-|

That's it! Enjoy, it's a great snippet from what will undoubtedly be a great song, by a 
new band!
Tap to rate this tab
 
# A B C D E F G H I J K L M N O P Q R S T U V W X Y Z