Song name
# A B C D E F G H I J K L M N O P Q R S T U V W X Y Z

Them Crooked Vultures - Nobody Loves Me And Neither Do I tab

-------------------------------------------------------------------------------
	     Nobody Loves Me And Neither Do I - Them Crooked Vultures
-------------------------------------------------------------------------------
Tabbed by: The_Raven
Email: Just use my profile if you need to contact me :)

This is what I've transcribed, by ear, from the "Nobody Loves Me And Neither Do I"
from Them Crooked Vulture's youtube channel. Enjoy ;)

Tuning: EADGBe

e|---------------------------------------------------------------------------|
B|---------------------------------------------------------------------------|
G|----------5--6--7------------5--6--7------------5--6--7------------5--6--7-|
D|---------------------------------------------------------------------------|
A|-3--4--5------------3--4--5------------3--4--5------------3--4--5----------|
E|---------------------------------------------------------------------------|

e|---------------------------------------------------------------------------|
B|---------------------------------------------------------------------------|
G|---------5--6--7-----------------------------------------------------------|
D|---------------------------------------------------------------------------|
A|-3--4--5----------3-4------------------------------------------------------|
E|---------------------------------------------------------------------------|

e|---------------------------------------------------------------------------|
B|---------------------------------------------------------------------------|
G|----------7--8--9------------7--8--9------------7--8--9------------7--8--9-|
D|---------------------------------------------------------------------------|
A|-5--6--7------------5--6--7------------5--6--7------------5--6--7----------|
E|---------------------------------------------------------------------------|

e|---------------------------------------------------------------------------|
B|---------------------------------------------------------------------------|
G|---------------------------------------------------------------------------|
D|---------------------------------------------------------------------------|
A|-5--6--7---5--6--7---6-5---------------------------------------------------|
E|---------------------------------------------------------------------------|

The following is the main riff found in the "Nobody Loves Me And Neither Do I" TEASER on
the clip around 20 seconds long.

e|-------------------|
B|-------------------|
G|-------------------|
D|-----------5--6--7-|
A|-------0-----------|
E|-/8-\5-------------|

Whilst I'm fairly sure the above is correct (the fingering is the only thing I'm not
about), I'm no so certain about the following. The following is a variation of the above
this riff being the one played in the longer ("Studio") Youtube snippet (a bit over 
seconds if I recall).

e|--------------------|
B|--------------------|
G|--------------------|
D|----------5--7--(7)-|
A|-------0---------0--|
E|-/8-\5--------------|

The small fill is

e|-------------------|
B|-------------------|
G|-------------------|
D|-----------5h7--5h7|
A|-------0-----------|
E|-/8-\5-------------|

Then, to close, there is

e|------------------------------------------------|
B|------------------------------------------------|
G|------------------------------------------------|
D|-7--6--7--6--7--6--7--6-------------------------|
A|-------------------------3--0--3--0--3--0--3--0-|
E|------------------------------------------------|

e|------------------------------------------------|
B|------------------------------------------------|
G|------------------------------------------------|
D|-6--5--6--5--6--5--6--5-------------------------|
A|-------------------------7--6--7--6--7--6--7--6-|
E|------------------------------------------------|


e|------------------------------------------------|
B|------------------------------------------------|
G|------------------------------------------------|
D|-7--6--7--6--7--6--7--6-------------------------|
A|-------------------------3--0--3--0--3--0--3--0-|
E|------------------------------------------------|

e|------------------------------------------------|
B|------------------------------------------------|
G|------------------------------------------------|
D|-6--5--6--5--6--5--6--5---9\--------------------|
A|--------------------------7\--------------------|
E|------------------------------------------------|
Tap to rate this tab
 
# A B C D E F G H I J K L M N O P Q R S T U V W X Y Z