Song name
# A B C D E F G H I J K L M N O P Q R S T U V W X Y Z

Them Crooked Vultures - Bandoliers tab

Them Crooked Vultures - Bandoliers

Tabbed By: Mark DiFranco

Tuning - E A D G B e


Main Riff:
e|--------------------------------------------------------------------| 
B|--------------------------------------------------------------------| 
G|-6--x-9-9--x-10-10--x-9-9--x-6-6--x-9-9--x-10-10--x-9-9--x----------| 
D|-x--x-x-x--x-x--x---x-x-x--x-x-x--x-x-x--x-x--x---x-x-x--x----------| x2
A|-x--x-x-x--x-x--x---x-x-x--x-x-x--x-x-x--x-x--x---x-x-x--x----------| 
E|-5--x-8-8--x-10-10--x-8-8--x-5-5--x-8-8--x-10-10--x-8-8--x----------| 

e|--------------------------------------------------------------------| 
B|-------------------------------------------8-8-8-xx-----------------| 
G|-10--10--10-10-10--10-10--10-10-10--10-10--7-7-7-xx-----------------| 
D|-10--10--10-10-10--10-10--10-10-10--10-10--5-5-5-xx-----------------| x1
A|-8---8---8--8--8---8--8---8--8--8---8--8----------------------------| 
E|--------------------------------------------------------------------| 


Riff 1:

e|--------------------------------------------------------------------| 
B|--------------------------------------------------------------------| 
G|-----7~----------7~-9---------5~--------------5~------5~----5~------| 
D|-7h9-----9~--7h9------6~--5h7-----5h7p5---5h7-----5h7---5h7---------| x2
A|--------------------------------------------------------------------| 
E|--------------------------------------------------------------------| 


Chorus:

e|--------------------------------------------------------------------| 
B|--------------------------------------------------------------------| 
G|-9--9-9--9-9-9-10-1010-101010-14--14-14--14-14-14-9--9-9--9-9-9-----| 
D|-9--9-9--9-9-9-10-1010-101010-14--14-14--14-14-14-x--x-x--x-x-x-----| x1
A|-7--7-7--7-7-7-8--8-8--8-8-8--12--12-12--12-12-12-x--x-x--x-x-x-----| 
E|-7--7-7--7-7-7-8--8-8--8-8-8----------------------9--9-9--9-9-9-----| 

e|-------------------------------| 
B|-------------------------------| 
G|-9-9-9-9-9--9-9---9-9--9-9-9---| 
D|-x-x-x-x-x--x-x---x-x--x-x-x---| x1
A|-7-7-7-7-7--7-7---7-7--7-7-7---| 
E|-8-8-8-8-8--8-8---8-8--8-8-8---| 

e|--------------------------------------------------------------------| 
B|--------------------------------------------------------------------| 
G|-9--9-9--9-9-9-10-1010-101010-14--14-14--14-14-14-14-14-14-14-14-14-| 
D|-9--9-9--9-9-9-10-1010-101010-14--14-14--14-14-14-14-14-14-14-14-14-| x1
A|-7--7-7--7-7-7-8--8-8--8-8-8--12--12-12--12-12-12-12-12-12-12-12-12-| 
E|-7--7-7--7-7-7-8--8-8--8-8-8----------------------------------------| 


Solo:

e|---------------------------12-------------------------------------------| 
B|-----------13~-------15~----------10^-10^--8h10-8~-8h10---8h10----------| 
G|-14~--12/14-----14h17--------14~-----------------------9~-----7~--------| 
D|------------------------------------------------------------------------| 
A|------------------------------------------------------------------------| 
E|------------------------------------------------------------------------| 

e|------------------------------------------------------------------------| 
B|--------------------------8~8~-------9~9~--8h10-8-6h8-6-----------------| 
G|-9~--9~-7-9-7-----7-9-7-9------7h9h10-------------------7h9-7----7~-----| 
D|--------------7~----------------------------------------------7h9-------| 
A|------------------------------------------------------------------------| 
E|------------------------------------------------------------------------|


Outro:

e|--------------------------------------------------| 
B|--------------------------------------------------| 
G|-x-14--x-10-14-14--x-10--14-14--x-8--14-14--x-8---| 
D|-x-x---x-x--x--x---x-x---x--x---x-x--x--x---x-x---| x2
A|-x-x---x-x--x--x---x-x---x--x---x-x--x--x---x-x---| 
E|-x-13--x-9--13-13--x-9---14-14--x-7--14-14--x-7---| 

e|--------------------------------------------------------------|
B|--------------------------------------------------------------| 
G|-1414141414141414\10--1414141414141414\10--1414141414141414\8-| 
D|-x-x-x-x-x-x-x-x--x---x-x-x-x-x-x-x-x--x---x-x-x-x-x-x-x-x--x-|
A|-x-x-x-x-x-x-x-x--x---x-x-x-x-x-x-x-x--x---x-x-x-x-x-x-x-x--x-| 
E|-1313131313131313\9---1313131313131313\9---1414141414141414\7-|

e|--------------------|
B|--------------------|
G|-1414141414141414\8-|
D|-x-x-x-x-x-x-x-x--x-| x8
A|-x-x-x-x-x-x-x-x--x-|
E|-1414141414141414\8-|
Tap to rate this tab
 
# A B C D E F G H I J K L M N O P Q R S T U V W X Y Z