Song name
# A B C D E F G H I J K L M N O P Q R S T U V W X Y Z

Them Crooked Vultures - Mind Eraser No Chaser tab

Tuning: Standard


Intro/Verse:

|-----------------------------------------------------------|
|-----------------------------------------------------------|
|-----------------------------------------------------------|
|-------------4--2-----<5>---7------------------------------|
|---3h4h3h4------------<5>---7------------------------------|
|----------------------<5>---5------------------------------|

No idea how to play the solo, so we'll just skip over that for now.

Chorus:
(Rapidly pick this part, don't feel like typing out every note)
|-----------------------------------------------------------|
|-----------------------------------------------------------|
|-----------------------------------------------------------|
|-----------------------------------------------------------|
|---9---12--------------------------------------------------|
|-----------------------------------------------------------|

Part right after the chorus: (again, pick rapidly, listen to song for length, etc.)

|-----------------------------------------------------------|
|-----------------------------------------------------------|
|-----------------------------------------------------------|
|-----------------------------------7-----------7-----------|
|---99999999-7777777-6666666--6-6h7---6---6-6h7-------------|
|-----------------------------------------------------------|

That part towards the end is a little awkward, but listen for it and you'll get it down.


And that's basically it. I think there's a little filler part between the chorus and 
post-chorus bit, but I haven't figured it out (unless it is what I put up there). Just 
to the song for the arrangement and be absolutely liberal with a wah pedal and you're set!
Tap to rate this tab
# A B C D E F G H I J K L M N O P Q R S T U V W X Y Z