Song name
# A B C D E F G H I J K L M N O P Q R S T U V W X Y Z

Them Crooked Vultures - Gunman tab

Them Crooked Vultures - Gunman

Tabbed By: Mark DiFranco


Tuning - E A D G B e


Intro:
e|--------------------------------------------------------------------| 
B|--------------------------------------------------------------------| 
G|--------------------------------------------------------------------| 
D|--------------------------------------------------------------------|
A|---12-12--8-8--5-5--0-0--------------------------3h5p3p0------------| 
E|-----------------------------0h3p0---0-3-0-0-3-0--------3-0-1-0-3-0-| 

e|--------------------------------------------------------------------| 
B|--------------------------------------------------------------------| 
G|--------------------------------------------------------------------| 
D|--------------------------------------------------------------------|
A|--3h5p3p0------------3h5p3p0------------3h5p3--3h5------------------| 
E|---------3-0-1-0-3-0--------3-0-1-0-3-0-----------1-0-3-0-----------| 


Main Riff:
e|--------------------------------------------------------------------| 
B|--------------------------------------------------------------------| 
G|--------------------------------------------------------------------| 
D|--------------------------------------------------------------------|
A|--3h5p3p0------------3h5p3p0------------3h5p3p0---------------------| 
E|---------3-0-1-0-3-0--------3-0-1-0-3-0--------3-0-1-0-3-0----------| 


Chorus:
e|--------------------------------------------------------------------| 
B|--------------------------------------------------------------------| 
G|--------------------------------------------------------------------| 
D|-12--12-12--11--11-11--/14-14--15--9~--9--10--10-10--10-12--14--7~--|
A|--------------------------------------------------------------------| 
E|--------------------------------------------------------------------| 

e|--------------------------------------------------------------------| 
B|--------------------------------------------------------------------| 
G|--------------------------------------------------------------------| 
D|-7--8~---5--7-------------------------------------------------------|
A|--------------------------------------------------------------------| 
E|--------------------------------------------------------------------|

Riff before Solo:
e|--------------------------------------------------------------------| 
B|--------------------------------------------------------------------| 
G|--------------------------------------------------------------------| 
D|---------------3----------------------------------------------------|
A|----------3h5p3--5p3p0----------------------------------------------| 
E|--1-0-3-0-------------1-0-3-0---------------------------------------|

Solo:
e|--------------------------------------------------------------------| 
B|--15~--15-17~--18~-17~---17/20-17~---15h17h18-15h17h18-15h17h18-17~-| 
G|--------------------------------------------------------------------| 
D|--------------------------------------------------------------------|
A|--------------------------------------------------------------------| 
E|--------------------------------------------------------------------|

e|--------------------------------------------------------------------| 
B|--17h18h20-17h18h20-17h18h20-18~--18/12/15-15~--15/20-17~-----------| 
G|--------------------------------------------------------------------| 
D|--------------------------------------------------------------------|
A|--------------------------------------------------------------------| 
E|--------------------------------------------------------------------|
Tap to rate this tab
# A B C D E F G H I J K L M N O P Q R S T U V W X Y Z