Song name
# A B C D E F G H I J K L M N O P Q R S T U V W X Y Z

Them Crooked Vultures - New Fang tab

Them Crooked Vultures - New Fang

Tabbed By: Mark DiFranco


Tuning - E A D G B e


Intro:
e|--------------------------------------------------------------------| 
B|--------------------------------------------------------------------| 
G|---------------9-7---9-7-----9-7---------7--------------------------| 
D|--x5~--x7-x9-9-9-7-9-9-7-9-9-9-7-7-7-5-5-7--------------------------|
A|--x5~--x7-x9-9-7-5-9-7-5-9-9-7-5-7-7-5-5-5--------------------------| 
E|--x3~--x5-x7-7-----7-----7-7-----5-5-3-3----------------------------| 

Slide Guitar:
e|--------------------------------------------------------------------| 
B|--10/12---10\7------------------------------------------------------| 
G|-----------------7/9-7\4--2-2/4-------------------------------------| 
D|--------------------------------------------------------------------|
A|--------------------------------------------------------------------| 
E|--------------------------------------------------------------------| 


Chorus Background Guitar:
e|--------------------------------------------------------------------| 
B|--------------------------------------------------------------------| 
G|--9-9-x---7-7-x--7\-------------------------------------------------| 
D|--9-9-x---7-7-x--7\---9-9-7--x--7-7-9-------------------------------|
A|--7-7-x---5-5-x--5\---9-9-7--x--7-7-9-------------------------------| 
E|----------------------7-7-5--x--5-5-7-------------------------------| 


Chorus Slide Guitar:
e|--------------------------------------------------------------------| 
B|--12\10/12---10\7/10--//10\-----------------------------------------| 
G|----------------------------/9-7---------7--------------------------| 
D|--------------------------------9-7--7-9---9------------------------|
A|--------------------------------------------------------------------| 
E|--------------------------------------------------------------------| 


Bridge:
e|--------------------------------------------------------------------| 
B|--------------------------------------------------------------------| 
G|------7-7--7-77-7--7-77/9-------7-7--7-77---------------------------| 
D|------7-7--7-77-7--7-77/9-------7-7--7-77-9-------------------------|
A|--0-0h5-5--5-05-5--5-55/7---0-0h5-5--5-05-9-------------------------| 
E|------------------------------------------7~------------------------|

Bridge Slide Guitar:
e|--9~----9/10--9~------------//10\9~---------------------------------| 
B|------------------9\5~--3\2---------etc-----------------------------| 
G|--------------------------------------------------------------------| 
D|--------------------------------------------------------------------|
A|--------------------------------------------------------------------| 
E|--------------------------------------------------------------------|


Odd Rhythm Part After Bridge:
e|--------------------------------------------------------------------| 
B|--------------------------------------------------------------------| 
G|------9-7---9-7-----9-7-------------9-7---9-7-----9-7---------------| 
D|--9-9-9-7-9-9-7-9-9-9-7-7-7-5-5-9-9-9-7-9-9-7-9-9-9-7-7-7-5-5-------|
A|--9-9-7-5-9-7-5-9-9-7-5-7-7-5-5-9-9-7-5-9-7-5-9-9-7-5-7-7-5-5-------| 
E|--7-7-----7-----7-7-----5-5-3-3-7-7-----7-----7-7-----5-5-3-3-etc---| 

Outro:
e|--------------------------------------------------------------------| 
B|--------------------------------------------------------------------| 
G|--------------------------------------------------------------------| 
D|--9\-9\--------7p5----9\-9\--------7p5------------------------------|
A|--9\-9\--7p5-------7--9\-9\--7p5-------7----------------------------| 
E|--7\-7\------7--------7\-7\------7----------------------------------|

e|---------------------------------------------10-12b13.5-10-12-------| 
B|-12-12~-10-12-10----10-------------10b12brbr------------------12~---| 
G|-----------------11----11-9-----------------------------------------| 
D|----------------------------9~-7h9----------------------------------|
A|--------------------------------------------------------------------| 
E|--------------------------------------------------------------------|

e|--------------------------------------------------------------------| 
B|----10--------------------------------------------------------------| 
G|--11----------------------------------------------------------------| 
D|--------\\9b10-x----------------------------------------------------|
A|--------------------------------------------------------------------| 
E|--------------------------------------------------------------------|
Tap to rate this tab
# A B C D E F G H I J K L M N O P Q R S T U V W X Y Z