Song name
# A B C D E F G H I J K L M N O P Q R S T U V W X Y Z

Them Crooked Vultures - Elephants tab

Them Crooked Vultures - Elephants

Tabbed By: Mark DiFranco


Tuning - E A D G B e


Intro Part 1:
e|--------------------------------------------------------------------| 
B|---------------------1-3--------------------1-3---------------------| x2
G|-------------------3----------------------3-------------------------| slow 
D|---------2p0--3p0---------------2p0--3p0----------------------------| x4
A|------1-----1----1-----------1-----1----1---------------------------| fast
E|---3---3------------------3---3-------------------------------------| 

Intro Part 2:
e|--------------------------------------------------------------------| 
B|--------------------------------------------------------------------| 
G|------------0-0--------------------0-0-------0-0-------0-0----------| 
D|-------3p0--0-0---------------3p0--0-0-------0-0-------0-0----------|
A|----1h3---3-----3p1--------1h3---3-----3p1-------3p1-------3p1------| 
E|--3-----------------3--3-3-----------------3---------3---------3----| 

e|--------------------------------------------------------------------| 
B|--------------------------------------------------------------------| 
G|--0-0x--0-0x--0x--0x--0x--0x----------------------------------------| 
D|--0-0x--0-0x--0x--0x--0x--0x----------------------------------------| x2 
A|--------------------------------------------------------------------| 
E|--------------------------------------------------------------------| 

Intro Part 3:
e|--------------------------------------------------------------------| 
B|---------------------1-3--------------------1-3---------------------| 
G|-------------------3----------------------3-------------------------| 
D|---------2p0--3p0---------------2p0--3p0----------------------------| x2 
A|------1-----1----1-----------1-----1----1---------------------------| 
E|---3---3------------------3---3-------------------------------------| 

e|--------------------------------------------------------------------| 
B|-----------3/----------3/----------3/----------3/-------------------| 
G|-------3-5---------3-5---------3-5---------3-5----------------------| 
D|--------------------------------------------------------------------| x1 
A|--------------------------------------------------------------------| 
E|---3-3---------3-3---------3-3---------3-3--------------------------| 

Main Riff:
e|--------------------------------------------------------------------| 
B|---3--6--8--11b-3--6--8--11b-3--6--8--11b--3-6-8--6-6/8-8\6-6\3-3~--| 
G|---x--x--x--x---x--x--x--x---x--x--x--x----x-x-x--------------------| 
D|---0--0--0--0---0--0--0--0---0--0--0--0----0-0-0--------------------|
A|--------------------------------------------------------------------| 
E|--------------------------------------------------------------------| 

e|--------------------------------------------------------------------| 
B|-------------------------6-6/8-8\6-6\3-3~-3//11-11~-----------------| 
G|---3/7-7\6-6\3-3~---------------------------------------------------| 
D|--------------------------------------------------------------------| x2 
A|--------------------------------------------------------------------| 
E|-------------------------[2nd time]---------------------------------| 

Main Riff 2:
e|--------------------------------------------------------------------| 
B|----------------------------------------6--6h8p6--------------------| 
G|-------------------------------------6h7--------7--7\6--6\3/6-etc---| 
D|---5--8--10-8--5--8--10-8--5--8--10---------------------------------| 
A|---5--8--10-8--5--8--10-8--5--8--10---------------------------------| 
E|---3--6--8--6--3--6--8--6--3--6--8----------------------------------|

Chorus:
e|--------------------------------------------------------------------| 
B|---5--5--5-5--5--5-5--5--5--5-5-------------------------------------| 
G|---5--5--5-5--5--5-5--5--5--5-5-------------------------------------| 
D|---x--x--x-x--x--x-x--x--x--x-x-------------------------------------|
A|---3--3--3-3--3--3-3--3--3--3-3---5-7-8-7-7/10-7~-------------------| 
E|--------------------------------------------------------------------|

e|--------------------------------------------------------------------| 
B|--------------------------------------------------------------------| 
G|--------------------------------------------------------------------| 
D|---7~ 7-7-5/7-7--8--7--5--------------------------------------------| x2
A|--------------------------8--5-7-8-7-7/10-7~------------------------| 
E|--------------------------------------------------------------------|

e|--------------------------------------------------------------------| 
B|---5~--5--5-5--5-x--3~--3--3-3--3--3--------------------------------| 
G|---5~--5--5-5--5-x--3~--3--3-3--3--3--------------------------------| 
D|---x~--x--x-x--x-x--x~--x--x-x--x--x--7--8\7--8\7-------------------| 
A|---3~--3--3-3--3-x--1~--1--1-1--1--1--7--8\7--8\7-------------------| 
E|--------------------------------------5--6\5--6\5-------------------| 

Outro:
e|--------------------------------------------------------------------| 
B|-3--6--8--11b-3--6--8--11b-3--6--8--11b--3-6-8-6---------------1-3--| 
G|-x--x--x--x---x--x--x--x---x--x--x--x----x-x-x-x--------------3-----| x1 
D|-0--0--0--0---0--0--0--0---0--0--0--0----0-0-0-0-----2p0--3p0-------| slow 
A|---------------------------------------------------1----1----1------| 
E|-------------------------------------------------3--3---------------|

Then fast like the intro
Tap to rate this tab
 
# A B C D E F G H I J K L M N O P Q R S T U V W X Y Z