Song name
# A B C D E F G H I J K L M N O P Q R S T U V W X Y Z

Them Crooked Vultures - Nobody Loves Me And Neither Do I tab

                          Them Crooked Vultures
                     'No One Loves Me & Neither Do I'

              Tabbed by Brian Coney [brianconey@gmail.com]
 
                      Tuned down to A (A-E-C-G-D-A)
     [very low tuning, down 3 and a half steps. make sure all strings 
     are correctly tuned in order to get the right sound for the song]

INTRO/VERSE:

   [0.09]                   
a|--s20s--|--------------------------------]
e|--------|-----------12-------------------]
c|--------|--7-7-8-9--12--9-9-8s9s8s7------]x 8
g|--------|--7-7-8-9-----------------------]  
d|--------|--5-5-6-7------7-7-8s7s6s5--7~--]
a|--------|----------------------------0~--]


Verse Fills:
   [0.19]    [0.21]             [0.26]           [0.41]       [0.46]
a|------------------------|-------12------|------12-b22b24--|--------]
e|b10-b10--b10r-10-8-10---|-----12--------|----12-----------|--b10~~-]
c|----------------------9-|-b14----14-12--|-b14-------------|--------]
g|------------------------|---------------|-----------------|--------]
d|------------------------|---------------|-----------------|--------]
a|------------------------|---------------|-----------------|--------]


CHORUS #1:
                  [0.51]               [0.53]
a|-------------------------------------------------]
e|---------------b14r14-12~-----------8r7----------]
c|--14-14-14-14--b14r14-12~--9-9-9-9------9-7------]
g|--14-14-14-14--------------9-9-9-9----------9-7--]
d|--12-12-12-12--------------7-7-7-7---------------]
a|-------------------------------------------------]

                                           [0.59]
a|-------------------------------------------------------]
e|---------------b14r14-12~-----------8r7---8r7---8r7----]
c|--14-14-14-14--b14r14-12~--9-9-9-9------9-----9-----9--]
g|--14-14-14-14--------------9-9-9-9---------------------]
d|--12-12-12-12--------------7-7-7-7---------------------]
a|-------------------------------------------------------]

                                      [1.04]
a|-------------------------------------------------]
e|---------------b14r14-12~-----------8r7----------]
c|--14-14-14-14--b14r14-12~--9-9-9-9------9-7------]
g|--14-14-14-14--------------9-9-9-9----------9-7~-]
d|--12-12-12-12--------------7-7-7-7---------------]
a|-------------------------------------------------]

a|------2-----------2~~--]
e|------5-5---------2~~--]
c|----5-5--5--------3~~--]  These two shapes - Cmaj(b5) 
g|---5------5-----2------]    & F7 - are arpeggiated
d|--3------------4-------]
a|--------------2--------]

                     [1.12]
a|-------------|-------------------]
e|----------8~-|-----------b10b12--]
c|--7-7-8-9----|-------------------]     The section is only 
g|--7-7--------|-------------------]  approximate to the improv
d|-------------|-9p7---------------]
a|-------------|-----5-3-0~~-------]


VERSE #2:

   [1.15]                   
a|--------------------------------]
e|-----------12-------------------]
c|--7-7-8-9--12--9-9-8s9s8s7------]x 7
g|--7-7-8-9-----------------------] 
d|--5-5-6-7------7-7-8s7s6s5--7~--]
a|----------------------------0~--]


VERSE #2 FILLS:

  [1.19]    [1.22]      [1.26]       [1.33]         [1.41]       [1.46]
a|-s19s-|-----------|-----b20b22-|------------|---15-12---------|------]
e|------|--b9b12r~~-|-b15--------|-b10r10-8---|---------b15b16~-|-11*~-] 
c|------|-----------|------------|----------9-|-14--------------|------]
g|------|-----------|------------|------------|-----------------|------]
d|------|-----------|------------|------------|-----------------|------]
a|------|-----------|------------|------------|-----------------|------]


CHORUS #2:
                  [1.51]               [1.53]
a|-------------------------------------------------]
e|---------------b14r14-12~-----------8r7----------]
c|--14-14-14-14--b14r14-12~--9-9-9-9------9-7------]
g|--14-14-14-14--------------9-9-9-9----------9-7--]
d|--12-12-12-12--------------7-7-7-7---------------]
a|-------------------------------------------------]

                                           [1.58]
a|------------------------------------------------11b12~--]
e|---------------b14b16r-12~-----------8r7---8r7----------]
c|--14-14-14-14--b14b16r-12~--9-9-9-9------9-----9--------]
g|--14-14-14-14---------------9-9-9-9---------------------]
d|--12-12-12-12---------------7-7-7-7---------------------]
a|--------------------------------------------------------]

                                      [2.03]
a|-------------------------------------------------]
e|---------------b14r14-12~-----------7t8----------]
c|--14-14-14-14--b14r14-12~--9-9-9-9------9-7------]
g|--14-14-14-14--------------9-9-9-9----------9-7~-]
d|--12-12-12-12--------------7-7-7-7---------------]
a|-------------------------------------------------]


a|------2-----------2~~--]
e|------5-5---------2~~--]
c|----5-5--5--------3~~--]  These two chords - Cmaj(b5) 
g|---5------5-----2------]   & F7 - are arpeggiated
d|--3------------4-------]
a|--------------2--------]


INTERLUDE:

A second guitar plays 
the following octave:

a|--12--]
e|------]
c|--9---] 
g|------]
d|------]
a|------]

+ (at the same time)

               [Main guitar line]
a|-----------------------------------------------]
e|-----------------------------------------------]
c|-----------------------------------------------]x 6
g|-----------------------------------------------]
d|--7p5h7p5h7p5---------6p5h6p5h6p5--------------]
a|--------------3p0h3p0-------------7p5h7p5~[~]--]


RIFF/BRIDGE:
   
   [2.41]
a|--------------]
e|--------------] *** = palm-muted
c|-------7-8-9--]
g|--***---------]x 32
d|--5s2--5-6-7--]
a|--3s0---------]

   [3.24]
a|---------------------------------------]
e|---------11-12-13------------13-14-15--]
c|---------------------------------------]
g|--8-9-10--8--9-10--10-11-12--10-11-12--]
d|---------------------------------------]
a|--6-7--8------------8--9-10------------]


a|--------------]
e|--------------] 
c|-------7-8-9--]
g|--***---------]x 3
d|--5s2--5-6-7--]
a|--3s0---------]

                                       [3.33]
a|---------|-----10-11-12-----10-11-12------------------------------]
e|---------|--------------------------------------------------------]
c|--7-8-9--|------7--8--9------7--8--9------------7-8-9------7-8-9--]
g|---------|--------------------------------------------------------]
d|--5-6-7--|--5s2----------5s0----------5s0--5s0--5-6-7--5s0-5-6-7--]
a|---------|--3s0----------3s0----------3s0--3s0---------3s0--------]


  [3.37]
a|-----------------------10-11-12--10-11-12---------------------------]
e|--------------------------------------------------------------------]
c|------7-8-9-7-8-9-------7--8--9---7--8--9----------7-8-9-----7-8-9--]x 2
g|--------------------------------------------------------------------]
d|--5s2-5-6-7-5-6-7--5s2---------5s2--------5s2--5s0-5-6-7-5s2-5-6-7--]
a|--3s0--------------3s0---------3s0--------3s0--3s0-------3s0--------]

  [3.53]
a|---------------------------------------------------|
e|---------------------------------------------------|
c|-------7-8-9--7-8-9-------7-8-9-------7-8-9--------|
g|---------------------------------------------------|
d|--5s2--5-6-7--5-6-7--5s2--5-6-7--5s2--5-6-7--5s2s--|
a|--3s0----------------3s0---------3s0---------3s0s--|

   [3.58]
a|---------------------------------------]
e|---------11-12-13------------13-14-15--]
c|---------------------------------------]
g|--8-9-10--8--9-10--10-11-12--10-11-12--]
d|---------------------------------------]
a|--6-7--8------------8--9-10------------]

+ 

   [3.58]
a|-----------------------------]
e|-----------------------------]
c|--------7-8-9-------9-10-11--]  A second guitar plays
g|-----------------------------]   besides the octaves
d|--5-6-7-------7-8-9----------]
a|-----------------------------]

a|----------------------------------------------------------------|-----]
e|----------------------------------------------------------------|-----]
c|------7-8-9-------7-8-9------7-8-9-7-8-9-------7-8-9------7-8-9-|-----]x 4
g|----------------------------------------------------------------|-----]
d|-5s2--5-6-7--5s2--5-6-7--5s2-5-6-7-5-6-7--5s2--5-6-7-5s2--5-6-7-|-5s2-]
a|-3s0---------3s0---------3s0--------------3s0--------3s0--------|-3s0-]

+
                     *
a|------------|--10-11-12--]
e|--10h11-----|------------]
c|--------12--|------------] A second guitar plays these 2
g|------------|------------] parts over the above. The 2nd
d|------------|------------] part (*) uses an octave pedal 
a|------------|------------]        (up +1 octave)

  [4.32] (palm-muted)
a|-------------------------------------------------------------]
e|---------7-8-9---------7-8-9---------7-8-9---------7-8-9-7---]
c|-------------------------------------------------------------]x 2 
g|--5-6-7--5-6-7--5-6-7--5-6-7--5-6-7--5-6-7--5-6-7--5-6-7-5---]
d|-------------------------------------------------------------]
a|--3-4-5---------3-4-5---------3-4-5---------3-4-5------------]

  [4.43]
a|--------------]
e|--------------]
c|-------7-8-9--]x 8
g|--------------]
d|--5s2--5-6-7--]
a|--3s0---------]

+

a|---------------------------------------------------]
e|--b10b11r9--b10b11r9--b10b11r9--10h11h12-10h11h12--]
c|---------------------------------------------------]x 2
g|---------------------------------------------------]
d|---------------------------------------------------]
a|---------------------------------------------------]


OUTRO:

  [4.54]                                                    SECTION B
a|--------------------------------------------------|------------------]
e|--------------------------------------------------|------------------]
c|--------------------------------------------------|------------------]x 2
g|--------------------------------------------------|------------------]
d|-7p5-7p5-7p5-7p5------------------6p5-6p5-6p5-6p5-|------------------]
a|-------------------3p0-3p0-3p0-3p0----------------|-7p5-7p5-7p5-7p5--]
 
+ (only play SECTION B in both sections the first time)

  [second guitar: +1 Octave]                                SECTION B
a|---------------------------------------------------|------------------]
e|---------------------------------------------------|------------------]
c|--9p7-9p7-9p7-9p7------------------8p7-8p7-8p7-8p7-|------------------]x 2
g|-------------------5p2-5p2-5p2-5p2-----------------|-9p7-9p7-9p7-9p7--]
d|---------------------------------------------------|------------------]
a|---------------------------------------------------|------------------]

  [third guitar: +2 Octave - 4.59]
a|-12p10-12p10-12p10-12p10-15p12-15p12-15p12-15p12-------------------------]
e|-------------------------------------------------16p15-16p15-16p15-16p15-]
c|-------------------------------------------------------------------------]
g|-------------------------------------------------------------------------]
d|-------------------------------------------------------------------------]
a|-------------------------------------------------------------------------]

  [5.03]
a|-------|
e|-------|
c|----x--|
g|----4--|
d|--x-x--|
a|--7s2--|

Good luck!
Tap to rate this tab
 
# A B C D E F G H I J K L M N O P Q R S T U V W X Y Z