Song name
# A B C D E F G H I J K L M N O P Q R S T U V W X Y Z

Them Crooked Vultures - Gunman tab

Intro

e|--------------------------------------------------------------|
B|--------------------------------------------------------------|
G|---14-14---10-10---7-7----------------------------------------|
D|-------------------------7-7~---------------------------------|
A|----------------------------------3-5-2-----3-5---------------|
D|--------------------------------------------------------------|

Main Riff

e|---------------------------------------------------------------|
B|---------------------------------------------------------------|
G|---------------------------------------------------------------|
D|---------------------------------------------------------------|
A|-------5s7----3-5-3-0---------5s7---3-5-3-0--------------------|
D|--3-0-------0---------3-0-3-0-----0---------3-0----------------|

e|---------------------------------------------------------------|
B|---------------------------------------------------------------|
G|---------------------------------------------------------------|
D|---------------------------------------------------------------|
A|-------5s7----3-5-3-0---------5s7---3-5-2---3-5----------------|
D|--3-0-------0---------3-0-3-0-----0----------------------------|
Tap to rate this tab
# A B C D E F G H I J K L M N O P Q R S T U V W X Y Z