Song name
# A B C D E F G H I J K L M N O P Q R S T U V W X Y Z

Them Crooked Vultures - Caligulove tab

Just wanted the riffs for this so havent tabbed the whole song

Tuning: Drop D

Intro:

e|------------------------------|
B|------------------------------|
G|------------------------------|
D|-0-2-3-5--5-3-2--2/10-5h7-7-7-|
A|-0-2-3-5--5-3-2--2/10-5h7-7-7-|
D|-0-2-3-5--5-3-2--2/10-5h7-7-7-|

Verse:

e|---------------|
B|---------------|
G|---------------|
D|-0-2-2-xx3--5~-|
A|-0-2-2-xx3--5~-|
D|-0-2-2-xx3--5~-|

Chorus:

e|----------------------------|
B|----------------------------|
G|----------------------------|
D|-7--7--7-5-h7-7--7--7-3~--5-|
A|-7--7--7-5-h7-7--7--7-3~--5-|
D|-7--7--7-5-h7-7--7--7-3~--5-|

e|------------------------------|
B|------------------------------|
G|------------------------------|
D|-8--8--8-7-5-8--8--8-8/10~--8-|
A|-8--8--8-7-5-8--8--8-8/10~--8-|
D|-8--8--8-7-5-8--8--8-8/10~--8-|

Fill after Intro and before chorus:

e|-----|
B|-----|
G|-----|
D|-7-5-|
A|-7-5-|
D|-7-5-|

(Repeat fast)
Tap to rate this tab
# A B C D E F G H I J K L M N O P Q R S T U V W X Y Z