Song name
# A B C D E F G H I J K L M N O P Q R S T U V W X Y Z

Them Crooked Vultures - Spinning In Daffodils tab

Them Crooked Vultures - Spinning in Daffodils

Tabbed By: Mark DiFranco


Tuning - D A D G B e

Main Riff:
e|--------------------------------------------------------------------| 
B|--------------------------------------------------------------------| 
G|--------------------------------------------------------------------| 
D|---5-5---8\7/8\7--5-5---8\7/8\7--5-5---8\7/8\7--5-5---8\7/8\7-------|
A|---5-5---8\7/8\7--5-5---8\7/8\7--5-5---8\7/8\7--5-5---8\7/8\7-------| 
D|---5-5------------5-5------------5-5------------5-5-----------------| 

Chorus:
e|--------------------------------------------------------------------| 
B|--------------------------------------------------------------------| 
G|--------------------------------------------------------------------| 
D|---8-8-10-12-10-8-5-5---8\7/8\7--5-5---8\7/8\7----------------------|
A|---8-8-10-12-10-8-5-5---8\7/8\7--5-5---8\7/8\7----------------------| 
D|---8-8-10-12-10-8-5-5------------5-5--------------------------------|

e|--------------------------------------------------------------------| 
B|--------------------------------------------------------------------| 
G|--------------------------------------------------------------------| 
D|-8-8-10-12-15-12-8-8-10-12-15-12-8-8-10-12-15-12-8-10-5-5-8\7/8\7---|
A|-8-8-10-12-15-12-8-8-10-12-15-12-8-8-10-12-15-12-8-10-5-5-8\7/8\7---| 
D|-8-8-10-12-15-12-8-8-10-12-15-12-8-8-10-12-15-12-8-10-5-5-----------|

Verse Riffs:
e|--------------------------------------------------------------------| 
B|--------------------------------------------------------------------| 
G|--------------------------------------------------------------------| 
D|--------------------------------------------------------------------|
A|---5~---5-4-5-5/7-4~----5/8-8-8-8--7-8-7-5-5/7-7~--7-4-5-7-4~-------| 
D|----------------------5---------------------------------------------|

e|--------------------------------------------------------------------| 
B|--------------------------------------------------------------------| 
G|--------------------------------------------------------------------| 
D|--------------------------------------------------------------------|
A|---5~4~2---2-4-4/8-7-5-4~---5/8-8-8-8--7-8-7-5-5/7-7~--4-5-7-4~-----| 
D|--------------------------5-----------------------------------------|

"Solo" after first Chorus:
e|--------------------------------------------------------------------| 
B|---2p0-------2p0------2p0------2p0------2p0-------------------------| 
G|------3p0-------3p0------3p0------3p0------3p0---3p0----------------| 
D|---------2---------2--------2p0------2p0------2p0-----5~------------|
A|------------------------------------------------------5~------------| 
D|------------------------------------------------------5~------------|

Right before the Transition
e|--------------------------------------------------------------------| 
B|--------------------------------------------------------------------| 
G|----------------------------------13\12/13\12----13\12/13\12--------| 
D|----9~--9/10-9--7\6--6/7-6~-------13\12/13\12----13\12/13\12--------|
A|--------------------------------------------------------------------| 
D|--------------------------------------------------------------------|

Transition:
e|--------------------------------------------------------------------| 
B|--------------------------------------------------------------------| 
G|--12~--12~--9-12-16~--17~-17~--17-17-16-14-13--13br---12~--9-12-16~-| 
D|--------------------------------------------------------------------|
A|--------------------------------------------------------------------| 
D|--------------------------------------------------------------------|

w/ slide: (from a live version; improvise using these notes)
e|--------------------------------------------------------------------| 
B|----/5~~\---/5~/7\5~~5/8\~--3/6\5~----5-//12--12/13\12--------------| 
G|--------------------------------------------------------------------| 
D|--------------------------------------------------------------------|
A|--------------------------------------------------------------------| 
D|--------------------------------------------------------------------|

e|--------------------------------------------------------------------| 
B|---/16-16/17\16--16\14\13~-etc--------------------------------------| 
G|--------------------------------------------------------------------| 
D|--------------------------------------------------------------------|
A|--------------------------------------------------------------------| 
D|--------------------------------------------------------------------|
Tap to rate this tab
 
# A B C D E F G H I J K L M N O P Q R S T U V W X Y Z