Song name
# A B C D E F G H I J K L M N O P Q R S T U V W X Y Z

Them Crooked Vultures - No One Loves Me Neither Do I tab

No one Loves me & Neither do I - Them Crooked Vultures

Intro - X4
|---------------------------------------------------------------------------------|
|------------------------5~-------------------------------------------------------|
|-----4--4---5---6-------5~-------------------------------------------------------|
|-----5--5---6---7-------5~------7--7--6h7p6--5-----7-----------------------------|
|-----5--5---6---7-----------------------------------------7----------------------|
|-----3--3---4---5-----------------------------------------5----------------------|

Verse - X4
|----------------------------------------------------------------------------------|
|------------------------5~--------------------------------------------------------|
|-----4--4---5---6-------5~--------------------------------------------------------|
|-----5--5---6---7-------5~------7--7--6h7p6--5-----7------------------------------|
|-----5--5---6---7-----------------------------------------7-----------------------|
|-----3--3---4---5-----------------------------------------5-----------------------|

Chorus
|--------------------------------------------------------------------|
|------6--6--6--6----------------------------------------------------|
|------7--7--7--7------/9---7--5~--------------------5p4-------------| X3
|------7--7--7--7-----------------------7--7--7--7--------7p5--------|
|------5--5--5--5-----------------------7--7--7----------------7--5--|
|---------------------------------------5--5--5--5-------------------|

|--------------------------------------------------------------------------------------|
|--------------------------------------------------------------------------------------|
|--2--2--2--2----2//---8---8---8---8---------------------------------------------------|
|--3--3--3--3----3//---9---9---9---9---------------------------------------------------|
|--3--3--3--3----3//---9---9---9---9---------------------------------------------------|
|--1--1--1--1----1//---7---7---7---7---------------------------------------------------|

Verse

Chorus

Bridge
|------------------------------------------------------------------------|
|------------------------------------------------------------------------|
|------------------------------------------------------------------------|  X6
|-7p6--7p6--7p6--7p6---------------6p5--6p5--6p5--6p5--------------------|
|---------------------3p0--3p0--0---------------------7p6--7p6--7p6-7p6--|
|------------------------------------------------------------------------|


Outro
|-----------------------------------|
|-----------------------------------|
|-----------------------------------|  X31
|-----------------------------------|
|------------0-----10h11h12---------|
|--8\\\5----------------------------|

|-----------------------------------------------------------------------|
|-----------------------------------------------------------------------|
|----------------5--6--7-----------------7--8--9------------------------|  X1
|-----------------------------------------------------------------------|
|----3--4--5----------------5--6--7-------------------------------------|
|-----------------------------------------------------------------------|


|----------------------------------------------------------------------------------|
|----------------------------------------------------------------------------------|
|----------------------------------------------------------------------------------|
|----------------------------------------------------------------------------------|
|--------0---10h11h12--------0---10h11h12--------0----10h11h12--10h11h12-----------|
|--8\\\5---------------8\\\5----------------8\\5-----------------------------------|

|----------------------------------------------------------------------|
|----------------------------------------------------------------------|
|----------------------------------------------------------  *repeat---| 4X
|----------------------------------------------------------------------|
|--------0---10h11h12----------0---10h11h12---------0------------------|
|--8\\\5----------------8\\\5------------------8\\5--------------------|

|------------------------------------------------------------------------|
|------------------------------------------------------------------------|
|----------------5--6--7-----------------7--8--9-------------------------| X1
|------------------------------------------------------------------------|
|----3--4--5----------------5--6--7--------------------------------------|
|------------------------------------------------------------------------|

|----------------------------------------------------------------------------|
|----------------------------------------------------------------------------|
|----------------------------------------------------------------------------|
|----------------------------------------------------------------------------|
|---------0---10h11h12--------0---10h11h12--------0----10h11h12--10h11h12----|
|--8\\\5----------------8\\\5----------------8\\5----------------------------|


|-------------------------------------------------------------------|
|-------------------------------------------------------------------|
|------------------------------------------------------   *repeat---| 4X
|-------------------------------------------------------------------|
|--------0---10h11h12--------0---10h11h12--------0------------------|
|--8\\\5---------------8\\\5----------------8\\5--------------------|

|------------------------------------------------------------|
|------------------------------------------------------------|
|------------------------------------------------------------|   X8
|------------------------------------------------------------|
|-------------------10h11h12---------------------------------|
|---10h11h12-------------------------------------------------|

|------------------------------------------------------------------------------------|
|------------------------------------------------------------------------------------|
|------------7--7--5---------7--7--5---------7--7--5----------7--7--5h7--------------|
|------------------------------------------------------------------------------------|
|---------0---------------0---------------0----------------0-------------------------|
|--8\\\5--------------8\\5------------8\\5-------------8\\5--------------------------|

|----------------------------------------------------------------------------|
|----------------------------------------------------------------------------|
|----------------------------------------------------------------------------|
|-7p6--7p6--7p6--7p6--------------------6p5--6p5--6p5--6p5-------------------|
|--------------------3p0--3p0--3p0--3p0-------------------7p6--7p6--7p6-7p6--|
|----------------------------------------------------------------------------|
\        /
  \     /
    X2


Maybe not 100% correct, but playing along it sounds fine.
Tap to rate this tab
# A B C D E F G H I J K L M N O P Q R S T U V W X Y Z