Song name
# A B C D E F G H I J K L M N O P Q R S T U V W X Y Z

Them Crooked Vultures - Bandoliers tab

I noticed the tab for this so far is pretty inaccurate for the lead parts, so here
they are (as I hear them anyway). They seem to fit when I play along with the song.


Bridge Lead; (Repeat x2)

e|-------7--------------7-------------------------------------------------|
B|--9h10----9-9~---9h10----9-9~--6h8-10-6-6~--6h8-10---6h8-10-6h8-10------|
G|------------------------------------------------------------------------|
D|------------------------------------------------------------------------|
A|------------------------------------------------------------------------|
E|------------------------------------------------------------------------|

Solo;

e|----------------------------------------------------------------------|
B|-------------13~--------15~---17-----10^-10^----8~-8h10---8h10--------|
G|-9/14~--12/14-----14h17---------14~----------9---------10------9---9-9|
D|----------------------------------------------------------------------|
A|----------------------------------------------------------------------|
E|----------------------------------------------------------------------|

e|----------------------------------------------------------------10----------|
B|------------------------------------8------8-8-------------8h10-------------|
G|-5---------5----9-5---------5--9h10---9h10----9h10p9--9h10---------10-7-7/9-|
D|---7~--5h7---7------7---5h7-------------------------------------------------|
A|----------------------------------------------------------------------------|
E|----------------------------------------------------------------------------|

Back into verse;

e|--------------------------------------------------------------------|
B|--------------------------------------------------------------------|
G|-6--x-9-9--x-10-10--x-9-9--x-6-6--x-9-9--x-10-10--x-9-9--x----------|
D|-x--x-x-x--x-x--x---x-x-x--x-x-x--x-x-x--x-x--x---x-x-x--x----------|
A|-x--x-x-x--x-x--x---x-x-x--x-x-x--x-x-x--x-x--x---x-x-x--x----------|
E|-5--x-8-8--x-10-10--x-8-8--x-5-5--x-8-8--x-10-10--x-8-8--x----------|

The other tab is fairly accurate for the bridge chords and i mainly wanted the lead, so 
all i can be bothered doing for now.
The solo is almost bang on I think as is the lead for the bridge, but there may be the 
note i've missed and miss heard some hammer ons/pull offs.
Anyway, the skeleton of it is there so play it as you want.

Enjoy.

LeylandLatic.
Tap to rate this tab
 
# A B C D E F G H I J K L M N O P Q R S T U V W X Y Z