Song name
# A B C D E F G H I J K L M N O P Q R S T U V W X Y Z

Them Crooked Vultures - Scumbag Blues tab

-------------------------------------------------------------------------------
		SCUMBAG BLUES (INTRO) - Them Crooked Vultures
-------------------------------------------------------------------------------
Tabbed by:Spencer B.
Email:

Tuning:Standard

This is the intro to the song, and part of the verse. Super fun to play, and is 
improvised a little bit live so this is only the studio version.

  Q=110
  Gtr I
  E E E E E E  S S  S S   E E E S S E  E Q
|-----------------------|--------------------|
|-----------------------|--------------------|
|-----------------------|-------------/7-5\--|
|-7---7---7---10-7------|--------------------|
|------------------10-7-|-5---5---x-5--------|
|-----------------------|--------------------|


  E E E E E E  S S  S S   E E E S S E  E Q
|-----------------------|--------------------|
|-----------------------|--------------------|
|-----------------------|-------------/7-5\--|
|-7---7---7---10-7------|--------------------|
|------------------10-7-|-5---5---x-5--------|
|-----------------------|--------------------|


  E E E E S S S E S S S   E E E S S E  E Q
|-----------------------|--------------------|
|-----------------------|--------------------|
|---------------5-------|-------------/7-5\--|
|-7---7---5h6h7---7p5---|--------------------|
|---------------------7-|-5---5---x-5--------|
|-----------------------|--------------------|


  E  S S S E. S S S E S S S   E E E S S E  E Q
|---------------------------|-------------------|
|---------------------------|-------------------|
|----------5--------5-------|-------------/7-5\-|
|-7--5h6h7----5h6h7---7p5---|-------------------|
|-------------------------7-|-5---5---x-5-------|
|---------------------------|-------------------|

Tap to rate this tab
# A B C D E F G H I J K L M N O P Q R S T U V W X Y Z