Song name
# A B C D E F G H I J K L M N O P Q R S T U V W X Y Z

Them Crooked Vultures - Mind Eraser No Chaser tab

First ever tab and it's not the whole song but i'll try and get it all up soon.
Please rate and comment.


Intro/ Main Riff

E------------------------------------------------------------------|
B------------------<5>---------------------------------------------|
G------------------<5>---------------------------------------------|  x12
D--------------4---<5>---7-7-7-7-----------------------------------|
A------3-4-3-4-----<5>---7-7-7-7-----------------------------------|
E----------------2-<5>---5-5-5-5-----------------------------------|


Chorus

E-------------------------------------------------------------------|
B-------------------------------------------------------------------|
G-------9-------9--------9----8---6-------14----------14---------14-|
D-------------------------------------------------------------------|
A---9-9----9-9-9---9-9-9---9---9----12-12----12-12-12---12-12-12----|
E-------------------------------------------------------------------|


E---------------|
B---------------|
G-----13----11--| x4
D---------------|
A--12----12-----|
E---------------|

Then:

E-----------------------------------------------------------------|
B-----------------------------------------------------------------|
G-----9-------9-------9-------9-------8-------8-------8-------8---| x5
D-----------------------------------------------------------------|
A-9-9---9-9-9---9-7-7---7-7-7---7-6-6---6-6-6---6-6-6---6-6-6-----|
E-----------------------------------------------------------------|

Then that's pretty much it there's no real variation except for near 2:26 wher it's 
like:

E----------------------------------|
B------5-------5-------5-----------|
G----------------------------------|
D----------------------------------|
A--3-3---3-0-0---0-----------------|
E------------------2-2-------------|

But i'm not 100% sure.


Thanks for looking
Tap to rate this tab
 
# A B C D E F G H I J K L M N O P Q R S T U V W X Y Z