Song name
# A B C D E F G H I J K L M N O P Q R S T U V W X Y Z

Them Crooked Vultures - Mind Eraser No Chaser tab

Standard Tuning

Not sure about the 2nd part of the fill

e|-/x-x-\x-x----------------------------|
B|-/x-x-\x-x----------------------------|
G|-/x-x-\x-x----------------------------|
D|-/x-x-\x-x----------4---<5>---7-7-7-7-|
A|-/x-x-\x-x-3h4-3h4------<5>---7-7-7-7-|
E|-/x-x-\x-x------------2-<5>---5-5-5-5-|
	
e|-----------------------|
B|-----------------------|
G|-------------2---------|
D|---------2-4---4-2---4-|
A|-----2-4-----------4---|
E|-2-5-------------------|

e|-------------------------------------|
B|-/5h7----5h7----5h7------------------|
G|------6------6------6--4-------4---6-|
D|-------------------------6-4-6---6---|
A|-------------------------------------|
E|-------------------------------------|

e|-------------------------------------------------|
B|-8b9.5-------------------------------------------|
G|---------2h4p2h4p2--------2---2-2h4p2-2----------|
D|--------------------4-2-4---4-----------4b4.5rb4-|
A|-------------------------------------------------|
E|-------------------------------------------------|
Tap to rate this tab
# A B C D E F G H I J K L M N O P Q R S T U V W X Y Z