Song name
# A B C D E F G H I J K L M N O P Q R S T U V W X Y Z

Them Crooked Vultures - Dead End Friends tab

Dead End Friends
Them Crooked Vultures

Intro:

e|--------------------------------------------------------------------------|
B|--------------------------------------------------------------------------|
G|--18-18-18--16-17-17-17---------------------------------------------------|
D|---x--x-x----x--x-x--x----------------------------------------------------|
A|--16-16-16--14-15-15-15---------------------------------------------------|
E|--------------------------------------------------------------------------|

e|--------------------------------------------------------------------------|
B|--------------------------------------------------------------------------|
G|--------------------------------------------------------------------------|
D|--------------------------------------------------------------------------|
A|--11-11-11-0-11-11-11-11--------------------------------------------------|
E|--9--9--9--0-9--9--9--9---------------------------------------------------|

On the fourth time he plays this instead:

e|--------------------------------------------------------------------------|
B|--------------------------------------------------------------------------|
G|--------------------------------------------------------------------------|
D|--------------------------------------------------------------------------|
A|-11-11-11-11-11-11-11-11--------------------------------------------------|
E|-9--9--9--9--9--9--9--9---------------------------------------------------|

Main Riff:

e|--------------------------------------------------------------------------|
B|--------------------------------------------------------------------------|
G|--------------------------------------------------------------------------|
D|--11-11-9-11-11-9-11-11-9-11-12-12-11-------------------------------------|
A|--9--9--9-9--9--9-9--9--9-9--9--9--9--------------------------------------|
E|--------------------------------------------------------------------------|

Riff 2:

e|--------------------------------------------------------------------------|
B|--------------------------------------------------------------------------|
G|--------------------------------------------------------------------------|
D|----------------------------------11h12-----------------------------------|
A|--11-11-9-11-11-9-11-11-9---12h14-----------------------------------------|
E|--9--9--7-9--9--7-9--9--7-------------------------------------------------|

Chorus:

e|--------------------------------------------------------------------------|
B|--------------------------------------------------------------------------|
G|--------------------------------------------------------------------------|
D|--9~----------------------------------------------------------------------|
A|--7~-12-11----------------------------------------------------------------|
E|-----10-9-----------------------------------------------------------------|

I don't have the solo tabbed out yet, but if you need it just solo in C sharp penatonic.
Tap to rate this tab
 
# A B C D E F G H I J K L M N O P Q R S T U V W X Y Z