Song name
# A B C D E F G H I J K L M N O P Q R S T U V W X Y Z

Them Crooked Vultures - No One Loves Me And Neither Do I tab

|-------------------------------|
|----------1--------------------|
|-0-0-1-2--0--2-2-1h2p1p0--2----|
|-0-0-1-2--0---------------2----|
|--------------------------0----|
|-------------------------------|

no one loves me.....neither do i....
|-----------------------------------------|
|-----------------------------------------|
|-7-7-7--7/9-7-5-------------5-4----------|
|-7-7-7-------------7-7-7-7------7-5------|
|-5-5-5-------------7-7-7-7----------7-5--|
|-------------------5-5-5-5---------------|

dont hold it against me.....unless it gets hard....
|--------------------------------|
|--------------------------------|
|--------------------------------|
|-3-3-3-3--3-3-3/9-9-9-9--9-9-9--|
|-3-3-3-3--3-3-3/9-9-9-9--9-9-9--|
|-1-1-1-1--1-1-1/7-7-7-7--7-7-7--|

again but with a little variation then you continue normally
|-------------------------------|
|----------1----------------3b--|
|-0-0-1-2-----2-2-1h2p1p0-------|
|-0-0-1-2-----------------------|
|-------------------------------|
|-------------------------------|

no one loves me.....neither do i....(there is a little variation here listen carefully)
|-------------------------------------------|
|-------------------------------------------|
|-7-7-7--7/9-7-5-------------5-4-----5-4----|
|-7-7-7-------------7-7-7-7------7-5-----7-5|
|-5-5-5-------------7-7-7-7-----------------|
|-------------------5-5-5-5-----------------|

then im not sure about this but it sounds good this way      lasy time
|--------------------------------------------------------|------------------|
|--------------------------------------------------------|------------------|
|--------------------------------------------------------|------------------|
|-7p6-7p6-7p6~----------------6p5-6p5-6p5~---------------|------------------|
|---------------3p0-3p0-3p0~----------------7p6-7p6-7p6~-|-7p6-7p6b(slowly)-|
|--------------------------------------------------------|------------------|

heavy part =D heavy riff 1
i know   how to burn with passion 
|---------------------------------|
|---------------------------------|
|---------------------------------|
|---------------------------------|
|----0--10h11h12-----0--10h11h12--|
|-8\5-------------8\5-------------|

you get...           ...got
|---------------------------------|
|---------------------------------|
|-------5-6-7-------7-8-9---------|
|---------------------------------|
|-3-4-5-------5-6-7---------------|
|---------------------------------|

heavy riff 2
|------------------------------------------------------|
|------------------------------------------------------|
|------------------------------------------------------|
|------------------------------------------------------|
|----0-10h11h12-----0-10h11h12-----0-10h11h12-10h11h12-|
|-8\5------------8\5------------8\5--------------------|

heavy riff 3
|-------------------------------------------------------|
|-------------------------------------------------------|
|-------------------------------------------------------|
|-------------------------------------------------------|
|----0-10h11h12----0 10h11h12-----0---------------------|
|-8\5-----------8\5------------8\5--(play heavy riff 2)-|


outro (crazy drum solo =D)
|-----------------------------------------------------------------|
|-----------------------------------------------------------------|
|-----------------------------------------------------------------|
|-7p6-7p6-7p6-7p6-----------------6p5-6p5-6p5-6p5-----------------|
|-----------------3p0-3p0-3p0-3p0-----------------7p6-7p6-7p6-7p6-|
|-----------------------------------------------------------------|

any corrections email me arturogz94@hotmail.com



Tap to rate this tab
# A B C D E F G H I J K L M N O P Q R S T U V W X Y Z