Song name
# A B C D E F G H I J K L M N O P Q R S T U V W X Y Z

Them Crooked Vultures - New Fang tab

Tuning: Standard (E A D G B E)
Intro
4 bars = Drums
|------|--------------------------------------------|
|------|--------------------------------------------|
|------|----9-7-----9-7------------9-7--------------|
|-5--8-|-9--9-7--9--9-7--9--9/7/9--9-7--9-9--5-5--8-|
|-5--8-|-9--7-5--9--7-5--9--9/7/9--7-5--9-9--5-5--8-|
|-3--6-|-7-------7-------7--7/5/7-------7-7--3-3--6-|

Main Riff/Verse - ("New fang, no thing, not on me...")
|--------------------------------------------|
|--------------------------------------------|
|----9-7-----9-7------------9-7--------------|
|-9--9-7--9--9-7--9--9/7/9--9-7--9-9--5-5--8-|
|-9--7-5--9--7-5--9--9/7/9--7-5--9-9--5-5--8-|
|-7-------7-------7--7/5/7-------7-7--3-3--6-|

Chorus - 2 Guitar Parts (Played together)
1)("Sometimes you break your finger on the other hand...")
Guitar 1
|---------------------------------------------|
|-12--12-----7--7-----------------------------|
|-10--10-----5--5-----------------------------|
|-12--12-----7--7---9-9-9-9-9-9-9-9-9-9-9-9-9-|
|-10--10-----5--5---9-9-9-9-9-9-9-9-9-9-9-9-9-|
|-------------------7-7-7-7-7-7-7-7-7-7-7-7-7-|
|   G7        D7                B5
Guitar 2
|-------------------------------------------|
|-12/10/12--10/7/10-------------------------|
|-----------------------9h11p9/7-------9/11-|
|--------------------------------9-7-9------|
|-------------------------------------------|
|-------------------------------------------|

2)("Think you've got me confused with the better man...")
Guitar 1
|---------------------------------------------|
|-12--12-----7--7-----------------------------|
|-10--10-----5--5-----------------------------|
|-12--12-----7--7---9-9-9-9-9-9-9-9-9-9-9-9-9-|
|-10--10-----5--5---9-9-9-9-9-9-9-9-9-9-9-9-9-|
|-------------------7-7-7-7-7-7-7-7-7-7-7-7-7-|
|   G7        D7                B5
Guitar 2
|-------------------------------------------|
|-12/10/12--10/7/10-------------------10----|
|-----------------------9h11p9/7---------11-|
|--------------------------------9-7-9------|
|-------------------------------------------|
|-------------------------------------------|

3)("Sometimes you break your finger on the other hand...")
Guitar 1
|---------------------------------------------|
|-12--12-----7--7-----------------------------|
|-10--10-----5--5-----------------------------|
|-12--12-----7--7---9-9-9-9-9-9-9-9-9-9-9-9-9-|
|-10--10-----5--5---9-9-9-9-9-9-9-9-9-9-9-9-9-|
|-------------------7-7-7-7-7-7-7-7-7-7-7-7-7-|
|   G7        D7                B5
Guitar 2
|-------------------------------------------|
|-12/10/12--10/7/10-------------------------|
|-----------------------9h11p9/7-------9/11-|
|--------------------------------9-7-9------|
|-------------------------------------------|
|-------------------------------------------|

4)("Say you've got me confused...")
Guitar 1
|-----------------|
|-12--12-----7--7-|
|-10--10-----5--5-|
|-12--12-----7--7-|
|-10--10-----5--5-|
|-----------------|
|   G7        D7
Guitar 2
|-------------------|
|-12/10/12--10/7/10-|
|-------------------|
|-------------------|
|-------------------|
|-------------------|

Then back to main riff

That's basically all the parts you need for the song.
Enjoy.
Tap to rate this tab
# A B C D E F G H I J K L M N O P Q R S T U V W X Y Z