Song name
# A B C D E F G H I J K L M N O P Q R S T U V W X Y Z

Them Crooked Vultures - Mind Eraser No Chaser tab

Tuning: Drop D (D A D G B E)
Intro
Riff 1.1                                Riff 1.2
|----------------------------------|    |-------------------------|
|----------------------------------|    |-------------------------|
|----------------------------------|    |-------------------------|
|-x-x-x-x----------4-------7-7-7-7-| x1 |---------4-------7-7-7-7-| x3
|-x-x-x-x--3h4-3h4-----<7>-7-7-7-7-|    |-3h4-3h4-----<7>-7-7-7-7-|
|-x-x-x-x------------4-----7-7-7-7-|    |-----------4-----7-7-7-7-|

Wah-Wah Solo = Riff 1.2 x 4

Verse = Riff 1.2 x 4

Pre-Chorus ("And all I wanna do is have my mind erased...")
|---------------------------------|---------------------------------|
|---------------------------------|---------------------------------|
|---------------------------------|---------------------------------|
|-4-4-4-4-4-4-4-4-4-2-4-6-7-6-4-2-|-7-7-7-7-7-7-7-7-7-7-7-7-7-6-6-6-| x4
|---------------------------------|---------------------------------|
|---------------------------------|---------------------------------|

Guitar 1
|---------------------------------------------------|
|---------------------------------------------------|
|---------------------------------------------------|
|-----4--------2--------1-------1-------1-------1---|
|---------------------------------------------------|
|-4-4---4--2-2---2--1-1---1-1-1---1-1-1---1-1-1---1-|
|
Guitar 2
|----------------------------------------------------|
|-----5h7------5--------4-------4-------4------------|
|----------------------------------------------------|
|-4-4------2-2---2--1-1---1-1-1---1-1-1---1-1/10-7~--|
|----------------------------------------------------|
|----------------------------------------------------|

Chorus ("Give me the reason why the mind's a terrible thing to waste...")
Guitar 1
|-----------------------------------------------------------------|
|-----------------------------------------------------------------|
|-----------------------------------------------------------------|
|-----4-------4-------2-------2-------1-------1-------1-------1---| x4
|-----------------------------------------------------------------|
|-4-4---4-4-4---4-2-2---2-2-2---2-1-1---1-1-1---1-1-1---1-1-1---1-|
|
Guitar 2
|-----------------------------------------------------------------|
|----5h7-----5h7------5-------5-------4-------4-------4-----------|
|-----------------------------------------------------------------|
|-4-4-------4-----2-2---2-2-2---2-1-1---1-1-1---1-1-1---1-1/10-7~-| x4
|-----------------------------------------------------------------|
|-----------------------------------------------------------------|

That's basically it. The riff that's played when Dave Grohl sings
"And all i wanna do is have my mind erased..." can also be 
played as a full powerchord by just barring the same fret 
on the E (tuned to D) and A string.
You should be able to play the rest of the song from here.
I will try and work out the Wah-Wah solos.
Enjoy.



Tap to rate this tab
 
# A B C D E F G H I J K L M N O P Q R S T U V W X Y Z