Song name
# A B C D E F G H I J K L M N O P Q R S T U V W X Y Z

Them Crooked Vultures - Elephants tab

This is what I've figured out so far. It sounds right, but hey, I could be wrong. Leave 
comments, and let me know! Thanks!

Key:
p = Pull Off
h = Hammer-On
^ = Bend up to one fret

e:------------------------|
B:--------------------1-3-|
G:------------------3-----|
D:------2p0---3p0---------|
A:--1-------1-----1-------|
E:-3--3-------------------|

That's the first riff, and then it's the same thing sped up, and then it changes to...

e:-------------------------|
B:-------------------------|
G:-------------------------|
D:---------3---------------|
A:-----3-5---5-3-5-5-3-----|
E:-3-6-----------------3-6-|

e:-------------------------|
B:-------------------------|
G:-------------------------|
D:---------3---------------|
A:-----3-5---5-3-5-5-3-----|
E:-3-6-----------------3-6-|

e:-------------------------|
B:-------------------------|
G:-------------------------|
D:-------------------------|
A:-3h5-5-3-----3h5-5-3-----|
E:---------6-4---------6-4-|

e:-------------------------|
B:-------------------------|
G:-------------------------|
D:---------3---------------|
A:-----3-5---5-3-5-5-3-----|
E:-3-6-----------------3-6-|

And then for the slower section after that, it's kind of like...

e:--------2^-5^-|
B:--2^-5^-------|
G:--------------|
D:--------------|
A:--------------|
E:--------------|

When you bend it, it's supposed to sound like you're actually playing 3, 6 and then 3, 6 
to the frets) but the style is very bendy for that section.

That's all I got! Hope it helps some of you out there!

~Ryan
Tap to rate this tab
# A B C D E F G H I J K L M N O P Q R S T U V W X Y Z