Song name
# A B C D E F G H I J K L M N O P Q R S T U V W X Y Z

Them Crooked Vultures - Highway 1 tab

Them Crooked Vultures - Hwy 1

Tabbed By: Mark DiFranco

Tuning - D G D G B d (Open G)

Played on a Mandolin, but it can also be played on guitar. This is a work in 
progress, and I welcome any suggestions or ideas.

Intro (some combination of these notes):
d|--------------------------------------------------------------------|
B|---5-7-9-10-12-14-15-17b--------------------------------------------|
G|--------------------------------------------------------------------|
D|--------------------------------------------------------------------|
G|--------------------------------------------------------------------|
D|--------------------------------------------------------------------|


Main Riff:
d|--------------------------------------------------------------------|
B|--------------------------------------------------------------------|
G|--------------------------------------------------------------------|
D|---/5h7-7-7-7-7-7-7-7-5p3p0-3h5---/5h7-7-7-7-7-7-7-7-5p3p0-5p3p0----|
G|---------------------------5------------------------------5-----5---|
D|--------------------------------------------------------------------|

d|--------------------------------------------------------------------|
B|--------------------------------------------------------------------|
G|--------------------------------------------------------------------|
D|---/5h7-7-7-7-7-7-7-7-5p3p0-3h5---/5h7-7-7-7-7-7-7-7-5p3p0--0-------|
G|---------------------------5------------------------------5-0-------|
D|--------------------------------------------------------------------|


Other Riff:
d|--------------------------------------------------------------------|
B|--------------------------------------------------------------------|
G|--------------------------------------------------------------------|
D|-------5p0-5h7-----5p0-5h7-----5p0-5h7-----5p0-5h7------------------|
G|---5h7---------5h7---------5h7---------5h7---------0-0-0-0----------|
D|--------------------------------------------------------------------|

d|--------------------------------------------------------------------|
B|--------------------------------------------------------------------|
G|--------------------------------------------------------------------|
D|-------5p0-5h7-----5p0-5h7-----5p0-5h7-----5p0-5h7------------------|
G|---5h7---------5h7---------5h7---------5h7---------0-0-0-0-0-0------|
D|--------------------------------------------------------------------|
Tap to rate this tab
# A B C D E F G H I J K L M N O P Q R S T U V W X Y Z