Song name
# A B C D E F G H I J K L M N O P Q R S T U V W X Y Z

Theory 47 - Thought Full tab

                        thought full by theory 47

intro

    T P H (x4)  (x4)     (x4)    (x2)     (x2)
A--10-3-6-----11-3-6---13-6-10---10-3-6--8-2-5-- (2X)
   C          G#        Eb        G       F
Verse is 4x

instrumental
e------------------------10b-----10b-|
B------------------------------------|
G--55--55--55--55--55--55--55--55----|
D--55--55--55--55--55--55--55--55----|
A--33--33--33--33--33--33--33--33----|
E------------------------------------|

e------------------------------------|
B------------------------------------|
G------------------------------------|
D----3--5--6--5--3------5--6--5------|
A--33-33-33-33-33-3--6-----------64--|
E------------------44-44-44-44-44----|

e-------------------------------------------|
B-------------------------------------------|
G----8--8--8--8--8--------------------------|
D-------------------------------------------|
A--66-66-66-66-66-6--5--6--5--33-3----------|  (2x) (2x w/ lyrics)
E------------------33-33-33-33--3----  (2x--|solo)(2x w/ lyrics)

solo

e-|3(16x)|4(16x)|6(16x)|7(14x)10(2x)|
  |8(14x)10(2x)|11(14x)13(2x)|15(16x)|16(4x)18(4x)19(4x)20(4x)|

bridge
e------------------------------------|
B------------------------------------|
G--5---------8-----------------------|
D--5----6----8----5------------------|
A--3----6----6----5------------------|
E-------4---------3------------------|


  listen to us on myspace.com/theory47
Tap to rate this tab
 
# A B C D E F G H I J K L M N O P Q R S T U V W X Y Z