Song name
# A B C D E F G H I J K L M N O P Q R S T U V W X Y Z

Theory 47 - Aother Day tab

            another day by theory 47

intro/verse
e-----5--------5-------5--------5---------5-55-5-55------|
B--5-----5--4-----4--3-----3--2-----2-----5-55-5-55------|
G-----------------------------------------6-66-6-66------|
D--------------------------------------------------------|
A--4--------3--------2--------0--------------------------|
E--------------------------------------------------------|

chorus
e--------------------------------------------------------|
B--------------------------------------------------------|
G--7-7--6-6-------------7-7--6-6-------------------------|
D--7-7--6-6--7-7--7-7---7-7--6-6--7-7--7-7---------------|
A--5-5--4-4--7-7--7-7---5-5--4-4--7-7--7-7---------------|
E------------5-5--5-5-------------5-5--5-5---------------|

bridge
e--------------------------------------------------------|
B--------------------------------------------------------|
G--------------------------------------------------------|
D--4444-2222-7777-9999--4444-2222-7777-9999--------------|
A--4444-2222-7777-9999--4444-2222-7777-9999--------------|
E--2222-0000-5555-7777--2222-0000-5555-7777--------------|

e--------------------------------------------------------|
B--------------------------------------------------------|
G--7---7---9---9---7---7---6-----------------------------|
D--7---7---9---9---7---7---6----55555555-77777777--------|
A--5---5---7---7---5---5---4----55555555-77777777--------|
E-------------------------------33333333-55555555--------|

solo
e------------------------------------------------------------|
B------------------------------------------------------------|
G--14b-12--12-14b-12--12-14b-12--12-14b-12--12--14b141414-12-|
D--------12---------12---------12---------12-----------------|
A------------------------------------------------------------|
E------------------------------------------------------------|

e------------------------------------------------------------|
B------------------------------------------------------------|
G--12-14-15-12-14-15-12-14-15-12-14-15-12-14-15-12-14-15-17b-|
D------------------------------------------------------------|
A------------------------------------------------------------|
E------------------------------------------------------------|

   listen to them at myspace.com/theory47
Tap to rate this tab
# A B C D E F G H I J K L M N O P Q R S T U V W X Y Z