Song name
# A B C D E F G H I J K L M N O P Q R S T U V W X Y Z

Theory 47 - One Good Reason tab

intro/ chorus
e---7-7--4-4--4--5-5--0--7-7--4-4--4--5-4--0-------------|
B---9-9--4-4--4--5-5--0--9-9--4-4--4--5-4--0-------------|
G---9-9--4-4--4--6-6--1--9-9--4-4--4--6-4--1-------------|
D---9-9--6-6--6--7-7--2--9-9--6-6--6--7-6--2-------------|
A---7-7--6-6--6--7-7--2--7-7--6-6--6--7-6--2-------------|
E--------4-4--4--5-5--0-------4-4--4--5-4--0-------------|

instrumental
e--------------------------------------------------------|
B--------------------------------------------------------|
G--------------------------------------------------------|
D--------20-30-20----------------20-30-20----------------|
A-----30----------30-20-30----30----------30-20-3--------|
E--00----------------------00----------------------------|

verse/ pre chorus
e--------------------------------------------2--5--2--555--|
B--------------------------------------------2--5--2--555--|
G--------------------------------------------2--6--2--666--|
D--2222-4444-7777-7777--2222-4444-7777-7777--4--7--4--777--|
A--2222-4444-7777-7777--2222-4444-7777-7777--4--7--4--777--|
E--0000-2222-5555-5555--0000-2222-5555-5555--2--5--2--555--|

bridge
e----------------------------------------------------------|
B----------------------------------------------------------|
G----------------------------------------------------------|
D--------20-30-20-----------------60-70-60-----------------|
A-----30----------30-20-30-----70----------70-60-70--------|
E--00-----------------------00-----------------------------|

e--------------------------------------------------------|
B--------------------------------------------------------|
G--------------------------------------------------------|
D--------40-50-40-----------------20-30-20---------------|
A-----50----------50-40-50-----30----------30-20-30------|
E--00-----------------------00---------------------------|

listen to them at myspace.com/theory47
Tap to rate this tab
# A B C D E F G H I J K L M N O P Q R S T U V W X Y Z