Song name
# A B C D E F G H I J K L M N O P Q R S T U V W X Y Z

Theory 47 - Dont Leave Me Here tab

          dont leave me here by theory 47

e------------------------------------------------------|
b------------------------------------------------------|
g------------------------------------------------------|
d-----------5-----------5------------------------------|
a-----5-----3-----5-----3-----2-----5------2----5------|
E--3-----5-----3-----5-----0-----0--3--0-----0--3------|

verse
e---3--3--3--3--10--10--10--10--8--8--8--8--3-----------|
b---3--3--4--3--10--10--11--10--8--8--9--8--3-----------|
g---4--3--3--4--11--10--10--11--9--10-8--9--4-----------|
d---5--5--5--5--12--12--12--12--10-10-10-10-5----5------|
a---5--5--5--5--12--12--12--12--10-10-10-10-5----5------|(8x)
E---3--3--3--3--10--10--10--10--8--8--8--8--3----3------|

chorus
e---3----5----3----3------------------------------------|
b---3----7----5----5------------------------------------|
g---4----7----5----5------------------------------------|
d---5----7----5----5------------------------------------|
a---5----5----3----3------------------------------------|
E---3---------------------------------------------------|

bridge
e------------------------------------------------------|
b------------------------------------------------------|
g------------------------------------------------------|
d-------5--3--7------5--3--------5---------------------|
a--45---------5--45--------7--5--3---------------------|
E--23------------23------------------------------------|

listen to them at myspace.com/theory47
Tap to rate this tab
# A B C D E F G H I J K L M N O P Q R S T U V W X Y Z