Song name
# A B C D E F G H I J K L M N O P Q R S T U V W X Y Z

Theory 47 - Pointless Reasoning tab

    Pointless Reasoning by Theory 47

intro/verse
e------------------------------------------|
B------------------------------------------|
G------------------------------------------|
D-----3-------5-------7-------7------------|
A---0---0---0---0---0---0---0---0----------|
E-1-------3-------5-------5----------------|

pre chorus
e------------------------------------------|
B------------------------------------------|
G------------------------------------------|
D-77777777-33333333-77777777-33333333------|
A-77777777-33333333-77777777-33333333------|
E-55555555-11111111-55555555-11111111------|

chorus
e------------------------------------------|
B------------------------------------------|
G------------------------------------------|
D-77--55--33--55--77--55--33--55-----------|
A-77--55--33--55--77--55--33--55-----------|
E-55--33--11--33--55--33--11--33-----------|

bridge
e------------------------------------------|
B------------------------------------------|
G------5555----------------5555------------|
D-7777-5555-3333-3333-7777-5555-3--2--3--2-|
A-7777-3333-3333-3333-7777-3333-3--2--3--2-|
E-5555------1111-1111-5555------1--0--1--0-|

pre chorus 2
e---------------------------------------------------------------------------------------|
B---------------------------------------------------------------------------------------|
G-99999999-55555555-99999999-5------------- D-99999999-55555555-99999999-5--------------|
A-77777777-33333333-77777777-3----------------------------------------------------------|
E---------------------------------------------------------------------------------------|
  [pm-----------------------------------------------------------------------------------|

chorus 2
e------------------------------------------|
B------------------------------------------|
G-9999-7777-5555-7777----------------------|
D-9999-7777-5555-7777----------------------|
A-7777-5555-3333-5555----------------------|
E------------------------------------------|

solo
e-12--12--10----------12--12--10------------------|
B---12------10-13-15----12------10131313-15131513-|
G-------12------------------12--------------------|
D-------------------------------------------------|
A-------------------------------------------------|
E-------------------------------------------------|

e-------------------------------------------------|
B-------------------------------------------------|
G-14-12-------14-12-------14-12-------14-12-------|
D-------14-12-------14-12-------14-12-------14-12-|
A-------------------------------------------------|
E-------------------------------------------------|

e-------------------------------------------------|
B-12x12x12-14-14--12x12x12-14-14------------------|
G-12x12x12-14-14--12x12x12-14-14------------------|
D-12x12x12-14-14--12x12x12-14-14------------------|
A-------------------------------------------------|
E-------------------------------------------------|

bridge 2
e--------------------------------------------|
B--------------------------------------------|
G-9999-7777-5555-7777-9999-7777-5555-7777-2--|
D-9999-7777-5555-7777-9999-7777-5555-7777-2--|
A-7777-5555-3333-5555-7777-5555-3333-5555-0--|
E--------------------------------------------|

check them out at myspace.com/theory47


   __________            _______
       |        |     |         /
       |        |     |        /
       |        |_____|       /
       |              |      |
       |              |      |
Tap to rate this tab
 
# A B C D E F G H I J K L M N O P Q R S T U V W X Y Z