Guitaretab - guitar tabs
Song name
# A B C D E F G H I J K L M N O P Q R S T U V W X Y Z

Theory Of A Deadman - Bad Girlfriend tab

Theory Of A Deadman-Bad Girlfriend
Scars & Souvenirs (2008) Track 8
Tabbed By Ryan Ryngaert
Drop D Tuning (D, A, D, G, B, E)

Intro (Guitar 1)
E--------------------------------|x2
B--------------------------------|
G--------------------------------|
D-0-0-------------0-0------------|
A-0-0-5-4-3-0-3-5-0-0-5-4-3-0-3--|
D-0-0-------------0-0------------|

(Guitar 2)
E--------------------------------|x2
B--------------------------------|
G--------------------------------|
D-0-0-------------0-0------------|
A-0-0-------------0-0------------|
D-0-0-------------0-0------------|

E---------------------------------|x2
B---------------------------------|
G---------------------------------|
D-0-0-------------0-0-------------|
A-0-0-5-4-3-0-3-5-0-0-5-4-3-0-3-5-|
D-0-0-------------0-0-------------|

Intro B (Solo Guitar 1)
E-----------------------------------------------|
B-----------------------------------------------|
G-----------------------------------------------|
D--15-12-10/12-15-12-10/12-15-15-12-------------|
A-----------------------------------12\11-12\11-|
D-----------------------------------------------|

E------------------------------------------------|
B------------------------------------------------|
G------------------------------------------------|
D------------15-12-10/12-15-12-10/12-15-15-12----|
A--12\11--8--------------------------------------|
D------------------------------------------------|

E---------------------------|
B---------------------------|
G--14\13--14\13--14\13--14--|
D---------------------------|
A---------------------------|
D---------------------------|

(Guitar 2)
E---------|x2
B---------|
G---5---5-|
D-0-5-5-5-|
A-0-3-5-3-|
D-0---5---|

Verse (Palm Mute)
E-----------------------------------------------------------------|x3
B-----------------------------------------------------------------|
G-7-7-7-7-7-7-7-7-5-5-5-5-5-5-5-5-4-4-4-4-4-4-4-4-5-5-5-5-5-5-5-5-|
D-7-7-7-7-7-7-7-7-5-5-5-5-5-5-5-5-5-5-5-5-5-5-5-5-5-5-5-5-5-5-5-5-|
A-----------------------------------------------------------------|
D-----------------------------------------------------------------|

E---------------------------------------------------------------------------------|x1
B---------------------------------------------------------------------------------|
G-7-7-7-7-7-7-7-7-10-10-10-10-10-10-10-10-12-12-12-12-14-14-14-14-17-17-17-17-5---|
D-7-7-7-7-7-7-7-7-12-12-12-12-12-12-12-12-12-12-12-12-15-15-15-15-17-17-17-17-5-5-|
A-----------------------------------------------------------------------------3-5-|
D-------------------------------------------------------------------------------5-|

Chorus
E-----------------------------------------------------------------|x2
B-----------------------------------------------------------------|
G-----------------5-5-5-5-5-5-5-5-----------------5-5-5-5-5-5-5-5-|
D-0-0-0-0-0-0-0-0-5-5-5-5-5-5-5-5-5-5-5-5-5-5-5-5-5-5-5-5-5-5-5-5-|
A-0-0-0-0-0-0-0-0-3-3-3-3-3-3-3-3-5-5-5-5-5-5-5-5-3-3-3-3-3-3-3-3-|
D-0-0-0-0-0-0-0-0-----------------5-5-5-5-5-5-5-5-----------------|

E------------------------------------|
B------------------------------------|
G------------------------------------|
D-15-12-10/12-15-12-10/12-15-15-12---|
A------------------------------------|
D------------------------------------|

E---------------------------|
B---------------------------|
G--14\13--14\13--14\13--14--|
D---------------------------|
A---------------------------|
D---------------------------|
[ Tab from: http://www.guitaretab.com/t/theory-of-a-deadman/106300.html ]
Verse (Palm Mute)
E-----------------------------------------------------------------|x1
B-----------------------------------------------------------------|
G-7-7-7-7-7-7-7-7-5-5-5-5-5-5-5-5-4-4-4-4-4-4-4-4-5-5-5-5-5-5-5-5-|
D-7-7-7-7-7-7-7-7-5-5-5-5-5-5-5-5-5-5-5-5-5-5-5-5-5-5-5-5-5-5-5-5-|
A-----------------------------------------------------------------|
D-----------------------------------------------------------------|

E---------------------------------------------------------------------------------|x2
B---------------------------------------------------------------------------------|
G-7-7-7-7-7-7-7-7-10-10-10-10-10-10-10-10-12-12-12-12-14-14-14-14-17-17-17-17-5---|
D-7-7-7-7-7-7-7-7-12-12-12-12-12-12-12-12-12-12-12-12-15-15-15-15-17-17-17-17-5-5-|
A-----------------------------------------------------------------------------3-5-|
D-------------------------------------------------------------------------------5-|

Chorus
E-----------------------------------------------------------------|x2
B-----------------------------------------------------------------|
G-----------------5-5-5-5-5-5-5-5-----------------5-5-5-5-5-5-5-5-|
D-0-0-0-0-0-0-0-0-5-5-5-5-5-5-5-5-5-5-5-5-5-5-5-5-5-5-5-5-5-5-5-5-|
A-0-0-0-0-0-0-0-0-3-3-3-3-3-3-3-3-5-5-5-5-5-5-5-5-3-3-3-3-3-3-3-3-|
D-0-0-0-0-0-0-0-0-----------------5-5-5-5-5-5-5-5-----------------|

Bridge
E----------------------------------------------------x2|
B------------------------------------------------------|
G--3-3-3-3-3-3-3-3-5-5-5-5-5-5-5-5---------------------|
D--3-3-3-3-3-3-3-3-5-5-5-5-5-5-5-5-0-0-----0-0---------|
A--1-1-1-1-1-1-1-1-3-3-3-3-3-3-3-3-0-0-----0-0---------|
D----------------------------------0-0^2-7-0-0^2-7-3b--|

E---------------------------------|x2
B---------------------------------|
G---------------------------------|
D-0-0-------------0-0-------------|
A-0-0-5-4-3-0-3-5-0-0-5-4-3-0-3-5-|
D-0-0-------------0-0-------------|

Solo (Guitar 1)
e-----------------------------------------------------------|
B-19-15-13/15-17----------13/15-----------------------------|
G-----------------------------------------------------------|
D----------------12/15\12-------12/15\12-10/12--------------|
A----------------------------------------------/12\10-12\10-|
E-----------------------------------------------------------|

e--------------------------------------------------------|
B--------------------------------------------------------|
G----------------------14-12-12\10-----------14-12-12-10-|
D------------12-12-12--------------12-12-12--------------|
A-12\10-8\5----------------------------------------------|
E--------------------------------------------------------|

e------------17-15-15\13-----------------------|
B--15-15-15---------------15-13-14-15-13-14-15-|
G----------------------------------------------|
D----------------------------------------------|
A----------------------------------------------|
E----------------------------------------------|


Chorus
E-----------------------------------------------------------------|x2
B-----------------------------------------------------------------|
G-----------------5-5-5-5-5-5-5-5-----------------5-5-5-5-5-5-5-5-|
D-0-0-0-0-0-0-0-0-5-5-5-5-5-5-5-5-5-5-5-5-5-5-5-5-5-5-5-5-5-5-5-5-|
A-0-0-0-0-0-0-0-0-3-3-3-3-3-3-3-3-5-5-5-5-5-5-5-5-3-3-3-3-3-3-3-3-|
D-0-0-0-0-0-0-0-0-----------------5-5-5-5-5-5-5-5-----------------|

Chorus Again
E-----------------------------------------------------------------|x2
B-----------------------------------------------------------------|
G-----------------5-5-5-5-5-5-5-5-----------------5-5-5-5-5-5-5-5-|
D-0-0-0-0-0-0-0-0-5-5-5-5-5-5-5-5-5-5-5-5-5-5-5-5-5-5-5-5-5-5-5-5-|
A-0-0-0-0-0-0-0-0-3-3-3-3-3-3-3-3-5-5-5-5-5-5-5-5-3-3-3-3-3-3-3-3-|
D-0-0-0-0-0-0-0-0-----------------5-5-5-5-5-5-5-5-----------------|

Ending
E---------------------------------|x1
B---------------------------------|
G---------------------------------|
D-0-0-------------0-0---------0-0-|
A-0-0-5-4-3-0-3-5-0-0-5-4-3-0-0-0-|
D-0-0-------------0-0---------0-0-|

Well that's it
I'm pretty sure that's 100% right
if not leave a correction or if you
think it's right leave a comment and
rate it thank you.
Related for Bad Girlfriend tab
Bad Girlfriend chords by Theory Of A Deadman