Song name
# A B C D E F G H I J K L M N O P Q R S T U V W X Y Z

Theory Of A Deadman - End Of The Summer tab

Band: Theory Of A Deadman
Song: End Of The Summer
Album: Scars And Souvenirs

Guitars: (All Tuned Half-Step Down)
Gtr 1 - Electric Distortion
Gtr 2 - Electric Clean
Gtr 3 - Acoustic

Verse

Gtr 3
E|-0-0-0-0-0-0-0-0-0-0-0-0-0-0-0-0-0-0-0-0-0-0-0-0-0-0-0-0-0-0-0-0---|
B|-0-0-0-0-0-0-0-0-0-0-0-0-0-0-0-0-0-0-0-0-0-0-0-0-0-0-0-0-0-0-0-0---|
G|-9-9-9-9-9-9-9-9-8-8-8-8-8-8-8-8-7-7-7-7-7-7-7-7-6-6-6-6-6-6-6-6---|
D|-9-9-9-9-9-9-9-9-8-8-8-8-8-8-8-8-7-7-7-7-7-7-7-7-6-6-6-6-6-6-6-6---| x2
A|-7-7-7-7-7-7-7-7-6-6-6-6-6-6-6-6-5-5-5-5-5-5-5-5-4-4-4-4-4-4-4-4---|
E|-------------------------------------------------------------------|

Gtr 2
E|-------------------------------------------------------------------|
B|-------------------------------------------------------------------|
G|-------------------------------------------------------------------|
D|-9-9-9-9-9-9-9-9-9-9-9-9-9-9-9-9-7-7-7-7-7-7-7-7-6-6-6-6-6-6-6-6---|
A|-7-7-7-7-7-7-7-7-6-6-6-6-6-6-6-6-5-5-5-5-5-5-5-5-4-4-4-4-4-4-4-4---|
E|-------------------------------------------------------------------|
(Palm Muted)

Pre-Chorus

Gtr 3
E|-0-0-0-0-0-0-0-0-0-0-0-0-0-0-0-0---|
B|-0-0-0-0-0-0-0-0-0-0-0-0-0-0-0-0---|
G|-5-5-5-5-5-5-5-5-7-7-7-7-7-7-7-7---|
D|-5-5-5-5-5-5-5-5-7-7-7-7-7-7-7-7---|
A|-3-3-3-3-3-3-3-3-5-5-5-5-5-5-5-5---|
E|-----------------------------------|

Gtr 2
E|-----------------------------------|
B|-----------------------------------|
G|-----------------------------------|
D|-5-5-5-5-5-5-5-5-7-7-7-7-7-7-7-7---|
A|-3-3-3-3-3-3-3-3-5-5-5-5-5-5-5-5---|
E|-----------------------------------|
(Palm Muted)

Chorus

Gtr 1
E|-------------------------------------------------------------------|
B|-------------------------------------------------------------------|
G|-9-9-9-9-9-9-9-9-9-9-9-9-9-9-9-9-7-7-7-7-7-7-7-7-------------------|
D|-9-9-9-9-9-9-9-9-9-9-9-9-9-9-9-9-7-7-7-7-7-7-7-7-7-7-7-7-7-7-7-7---|
A|-7-7-7-7-7-7-7-7-6-6-6-6-6-6-6-6-5-5-5-5-5-5-5-5-7-7-7-7-7-7-7-7---|
E|-------------------------------------------------5-5-5-5-5-5-5-5---|
                                                                       x2
Gtr 2
E|-12--12--12--12--14--14--14--14--10--10--10--10--12--12--12--12----|
B|---12--12--12--12--12--12--12--12--10--10--10--10--10--10--10--10--|
G|-------------------------------------------------------------------|
D|-------------------------------------------------------------------|
A|-------------------------------------------------------------------|
E|-------------------------------------------------------------------|

Pre-Verse

Gtr 1
E|-----------------|
B|-----------------|
G|-9~--------------|
D|-9~--------------|
A|-7~--------------|
E|-----------------|

Repeat Verse
Repeat Pre-Chorus
Repeat Chorus

Pre-Solo

Gtr 1
E|-----------------------------------|
B|-----------------------------------|
G|-5-5-5-5-5-5-5-5-7-7-7-7-7-7-7-7---|
D|-5-5-5-5-5-5-5-5-7-7-7-7-7-7-7-7---|
A|-3-3-3-3-3-3-3-3-5-5-5-5-5-5-5-5---|
E|-----------------------------------|

Solo

Gtr 1                  x3                    x1
E|----------------------|---------------------|
B|-7-9~---9~---7---7-5--|-7~----9-------------|
G|----------------------|-----------9~--------|
D|----------------------|---------------------|x2
A|----------------------|---------------------|
E|----------------------|---------------------|

E|-------------------------------|
B|-5~------------/7~-------------|
G|-------------------------------|
D|-------------------------------|
A|-------------------------------|
E|-------------------------------|

Repeat Chorus
Repeat Chorus again, but this time, it is played two frets higher.

Outro

Gtr 1
E|------------------------------------------|
B|------------------------------------------|
G|-7-7-7-7-7-7-7-7-9-9-9-9-9-9-9-9-11~~~~---|
D|-7-7-7-7-7-7-7-7-9-9-9-9-9-9-9-9-11~~~~---|
A|-5-5-5-5-5-5-5-5-7-7-7-7-7-7-7-7-9~~~~----|
E|------------------------------------------|

There you have it. This is a great song and is really easy to play. Hope you enjoyed it! 
rate and leave a comment.
Tap to rate this tab
 
# A B C D E F G H I J K L M N O P Q R S T U V W X Y Z