Song name
# A B C D E F G H I J K L M N O P Q R S T U V W X Y Z

Theory Of A Deadman - Got It Made tab

I am not so sure of this tab, but i'm just putting it up to just give you an idea of it 
that maybe you can make it. This song is from the new Theory Of A Deadman album SCARS & 
Also check out Sp Happy and Crutch.

From:iTunes

Tuning:Drop C

Guitar 1 (C G C F A D)
Guitar 2 (C G C F A D)

Intro:

Guitar 1
D-11-x2----------------------------------------------------------------------|
A----------------------------------------------------------------------------|
F-------12ps-----------------------------------------------------------------|
C-------12ps-0-0-0-3-3-3-3-5-5-5-3-3-3-5-5-5-0-0-0-3-3-3-3-5-5-5-3-3-3-5-5-5-|
G-------12ps-0-0-0-3-3-3-3-5-5-5-3-3-3-5-5-5-0-0-0-3-3-3-3-5-5-5-3-3-3-5-5-5-|
C------------0-0-0-3-3-3-3-5-5-5-3-3-3-5-5-5-0-0-0-3-3-3-3-5-5-5-3-3-3-5-5-5-|
12ps means pick slide and the pick slide starts at 12 fret.

Guitar 2
D----------------------------------------------------------------|
A----------------------------------------------------------------|
F----------------------------------------------------------------|
C----------------------------------------------------------------|   x2
G-5--8--5--8-11-11--10--9--5-8-13-11--13-11-10--11-10--10--10----|
C----------------------------------------------------------------|

Verse   No Time For A Suitcase

Guitar 1
D-----------------------------------------------------------------|
A-----------------------------------------------------------------|
F-----------------------------------------------------------------|
C-0pm-0pm-0pm-3pm-3pm-3pm-3pm-5pm-5pm-5pm-3pm-3pm-3pm-5pm-5pm-5pm-|
G-0pm-0pm-0pm-3pm-3pm-3pm-3pm-5pm-5pm-5pm-3pm-3pm-3pm-5pm-5pm-5pm-|
C-0pm-0pm-0pm-3pm-3pm-3pm-3pm-5pm-5pm-5pm-3pm-3pm-3pm-5pm-5pm-5pm-|

Guitar 2
D-----------------------------------------------------------------|
A-----------------------------------------------------------------|
F-----------------------------------------------------------------|
C-0pm-0pm-0pm-3pm-3pm-3pm-3pm-5pm-5pm-5pm-3pm-3pm-3pm-5pm-5pm-5pm-|
G-0pm-0pm-0pm-3pm-3pm-3pm-3pm-5pm-5pm-5pm-3pm-3pm-3pm-5pm-5pm-5pm-|
C-0pm-0pm-0pm-3pm-3pm-3pm-3pm-5pm-5pm-5pm-3pm-3pm-3pm-5pm-5pm-5pm-|
Play Guitar 2 after Guitar 1 plays 5 times

Chorus   Were Having The Best Time, Living The Fast Life

Guitar 1
D-11-10---11-10---10-11---10-11-12-11-10-|
A----------------------------------------|
F----------------------------------------|
C----------------------------------------|
G----------------------------------------|
C----------------------------------------|

Guitar 2
D---------------------------------------------------------|
A---------------------------------------------------------|
F---------------------------------------------------------|
C-8-8-8-8-8-8-8-3-3-3-3-3-3-3-5-5-5-5-5-5-5-5-5-5-5-5-5-5-|
G-8-8-8-8-8-8-8-3-3-3-3-3-3-3-5-5-5-5-5-5-5-5-5-5-5-5-5-5-|
C-8-8-8-8-8-8-8-3-3-3-3-3-3-3-5-5-5-5-5-5-5-5-5-5-5-5-5-5-|

Guitar 1
D-11-10---10-11-12-11-10-------------------------------|
A------------------------------------------------------|
F------------------------------------------------------|
C------------------------5-5-5-3-3-3-5-5-5-6-6-6-5-5-5-|
G------------------------------------------------------|
C------------------------------------------------------|

Guitar 2
D-------------------------------------------------------------|
A-------------------------------------------------------------|
F-------------------------------------------------------------|
C-8-8-8-8-8-8-8-3-3-3-3-3-3-3-0-0-0-3-3-3-3-5-5-5-3-3-3-5-5-5-|
G-8-8-8-8-8-8-8-3-3-3-3-3-3-3-0-0-0-3-3-3-3-5-5-5-3-3-3-5-5-5-|
C-8-8-8-8-8-8-8-3-3-3-3-3-3-3-0-0-0-3-3-3-3-5-5-5-3-3-3-5-5-5-|

Guitar 1 & 2
D------------------------------------------------------------|
A------------------------------------------------------------|
F------------------------------------------------------------|
C-8-8-8-8-8-8-8-3-3-3-3-3-3-3-5-5-5-5-5-5-5-3-3-3-3-3-3-3----|   x2
G-8-8-8-8-8-8-8-3-3-3-3-3-3-3-5-5-5-5-5-5-5-3-3-3-3-3-3-3----|
C-8-8-8-8-8-8-8-3-3-3-3-3-3-3-5-5-5-5-5-5-5-3-3-3-3-3-3-3----|

Repeat Verse

After Repeat Verse, Repeat Chorus

Guitar Solo   We've Got It, We've Got It, We've Got It Made

Guitar 1
D-----------------------------------------------------9h7h9-10b-10-10b-10--|b
A-16fb-14-13-12~~--------------------------9h7-9-7~9h7---------------------|
F----------------13b-11~~~~~9b----------9h7--------------------------------|
C------------------------------3~~~~-9h7-----------------------------------|
G--------------------------------------------------------------------------|
C--------------------------------------------------------------------------|

Guitar 2
D------------------------------------|
A------------------------------------|
F------------------------------------|
C-0-0-0-3-3-3-3-5-5-5-3-3-3-5-5-5----|   x4
G-0-0-0-3-3-3-3-5-5-5-3-3-3-5-5-5----|
C-0-0-0-3-3-3-3-5-5-5-3-3-3-5-5-5----|

Drum Solo   Now Were Running On Empty

I don't know it yet but i will guess
Guitar 2
D--------------------------------|
A--------------------------------|
F--------------------------------|
C--------------------------------|   x6
G--------------------------------|
C-0--3-5--0-5-3-7--0-5--3-5-0----|

Guitar 1  After Guitar 2 Plays
D--------------------------|
A--------------------------|
F--------------------------|
C-0-0-0-3-3-3-5-5-5-3-3-3--| x4
G--------------------------|
C--------------------------|

Chorus   Were Having The Best Time, Living The Fast Life

Guitar 1
D-11-10---11-10---10-11-12-11-10-|
A--------------------------------|
F--------------------------------|
C--------------------------------|
G--------------------------------|
C--------------------------------|

Guitar 2
D---------------------------------------------------------|
A---------------------------------------------------------|
F---------------------------------------------------------|
C-8-8-8-8-8-8-8-3-3-3-3-3-3-3-5-5-5-5-5-5-5-5-5-5-5-5-5-5-|
G-8-8-8-8-8-8-8-3-3-3-3-3-3-3-5-5-5-5-5-5-5-5-5-5-5-5-5-5-|
C-8-8-8-8-8-8-8-3-3-3-3-3-3-3-5-5-5-5-5-5-5-5-5-5-5-5-5-5-|

Guitar 1
D-11-10---10-11-12-11-10-------------------------------|
A------------------------------------------------------|
F------------------------------------------------------|
C------------------------5-5-5-3-3-3-5-5-5-6-6-6-5-5-5-|
G------------------------------------------------------|
C------------------------------------------------------|

Guitar 2
D-------------------------------------------------------------|
A-------------------------------------------------------------|
F-------------------------------------------------------------|
C-8-8-8-8-8-8-8-3-3-3-3-3-3-3-0-0-0-3-3-3-3-5-5-5-3-3-3-5-5-5-|
G-8-8-8-8-8-8-8-3-3-3-3-3-3-3-0-0-0-3-3-3-3-5-5-5-3-3-3-5-5-5-|
C-8-8-8-8-8-8-8-3-3-3-3-3-3-3-0-0-0-3-3-3-3-5-5-5-3-3-3-5-5-5-|


Guitar 1 & 2
D------------------------------------------------------------|
A------------------------------------------------------------|
F------------------------------------------------------------|
C-8-8-8-8-8-8-8-3-3-3-3-3-3-3-5-5-5-5-5-5-5-5-5-5-5-5-5-5----|   x2
G-8-8-8-8-8-8-8-3-3-3-3-3-3-3-5-5-5-5-5-5-5-5-5-5-5-5-5-5----|
C-8-8-8-8-8-8-8-3-3-3-3-3-3-3-5-5-5-5-5-5-5-5-5-5-5-5-5-5----|

Ending   We've Got It, We've Got It, We've Got It Made

Guitar 1 & 2
D----------------------------------|
A----------------------------------|
F----------------------------------|
C-0-0-0-3-3-3-3-5-5-5-3-3-3-5-5----|   x4
G-0-0-0-3-3-3-3-5-5-5-3-3-3-5-5----|
C-0-0-0-3-3-3-3-5-5-5-3-3-3-5-5----|

Guitar 1 & 2
D--------------|
A--------------|
F----------7-7-|
C-0~~~~~~~-7-7-|
G-0~~~~~~~-7-7-|
C-0~~~~~~~-----|

If you think this song could be better in anyway like the Drum Solo than comment me, or 
it yourself...... ROCK OUT!!!!!!!!!!!!!!!!!!!!!!!!!!
Tap to rate this tab
# A B C D E F G H I J K L M N O P Q R S T U V W X Y Z